» » »

Format, Snails Tabs (ver.3)

Artists:  A B C D E F G H I J K L M N O P Q R S T U V W X Y Z # 

Snails Tabs (ver.3)

Format Tabs
Rating:
5/5 (7 votes)
Snails lessons Tabs too difficult? Try these video lessons and learn fast
                e-------------------------------------------|
B----3---3---3---3---3---3---3--------------|
G----2---2---2---2---0---0---0--------------|repeat for verse and
D---0---------------------------------------|chorus
A-------4---2---0-------------------0-2-4---|
E-------------------3---2---0---------------|


e----------------------------------------|
B-----------3---5--7---8-7-9-------------|
G-----------4---6--8---9-8-8-------------|
D---4-2-0---4---6--8---9-8-8-------------|
A----------------------------------------|
E----------------------------------------|


yeah
            
Submit corrections

comments powered by Disqus
↑ Back to top | Format Tabs for Snails. Lyrics for acoustic guitar and electric guitar. Tablatures and chords are parodies/interpretations of the original songs. You may use it for private study, scholarship, research or language learning purposes only