>
 >
Dog Problems 1

Dog Problems 1 Guitar Tabs

Format - Dog Problems 1 chords, tabs, tablatures, lyrics

Guitar lessons | Add/correct | Request | Top 50 tabs Artists:  A B C D E F G H I J K L M N O P Q R S T U V W X Y Z 0-9

Dog Problems 1 Guitar Tabs – Format

CD, Sheet music, Poster

Do you like Dog Problems 1? Share with your friends now
ChordsTabsTabs v2Ukulele

It was incredibely tedious to write this up, as in some parts of the songs there was
going on, and it was only the second tab I had written, so I hope it doesn't suck too 
;)
I made the tab with help from the software "Transcribe!" by Seventh String.
The bass is pretty inaccurate, as I don't have a bass guitar to try it out on. And I
done all of the bass guitar, as I realised later on that the bass is generally just the
note of of the chord with a really really simple beat, and I had wasted too much time 
I got too lazy to write the piano out at some point as well, but the rhythm should be
obvious by that point. :P
I have synchronised the chords and notes with the words, to make it easier to get the
right, but you will have to listen to the song for the rhythm for some parts of the horn/strings.
In the bridge, I did not bother writing the plucking/strumming pattern, just play what
think sounds best.

As well as all of the seperate parts, I also tried writing a solo guitar copy of the
on the bottom, I sort of tried to combine all of the parts which does make it pretty hard
places (it's not completely impossible I think), and it won't sound exactly right.
You can really simplify it by just playing the chord names above the lyrics. :)
Note: I hope you can fingerpick well.
So I don't mind if somebody want's to use my tab as a base to a better transcription. If
use alot of this though it would be nice if they credited me.

I was thinking it would be nice to get all of Dog Problems tabbed out, but I don't think
can be bothered if I am the only person having a go.
Onto the song.

~ = hold the note
x = hit the guitar or the strings (depends - I wasn't really sure where to put it, but
it was needed for the beginning of the first verse)

Tuning: EADGBe (Standard Tuning)

1st Verse:
Piano
e-------------------------------------------------|
B-0-----1--------5--------------------------------|
G-0--------------0--------------------------------|
D----------------2--------------------------------|
A-3--------------3--------------------------------|
E-------------------------------------------------|
 C
 Don't you dare, speak for someone you don't know.

Piano
e-------------------------------------------------|
B-------------------------------------------------|
G-------------------------------------------------|
D-------------------------------------------------|
A-------------------------------------------------|
E-------------------------------------------------|
 They'll feel it in the back of their throat.

Piano
e-------------------------------------------------|
B---1---------------------------------------------|
G---2---------------------------------------------|
D---2---------------------------------------------|
A---3---------------------------------------------|
E-------------------------------------------------|
 Am/C
 We know I can't construct a poem,

Piano
e-------------------------------------------------|
B-------------------------------------------------|
G-------------------------------------------------|
D-------------------------------------------------|
A-------------------------------------------------|
E-------------------------------------------------|
 cause' words, like girls get bored and run

Piano
e-------------------------------------------------|
B-------------------------------------------------|
G---------2---------------------------------------|
D---------3---------------------------------------|
A---------3---------------------------------------|
E-------------------------------------------------|
          F
 c'est la vie, I say I've got so many better things

Piano
e--------------------------------------------------|
B--------------------------------------------------|
G---------4~---------------------------------------|
D---------5~---------------------------------------|
A---------5~---------------------------------------|
E---------3~---------------------------------------|
          G
 I've got nothing, you should see me,

Bass
G-------------------------------------------------|
D-------------------------------------------------|
A-------------------------------------------------|
E-3-----------------------------------------------|
Piano
e-------------------------------------------------|
B-----------------------------3-------------------|
G---4-------4------4-----4--4-4-------------------|
D---5-------5------5-----5--5---------------------|
A-------------------------------------------------|
E-3------3------3---------------------------------|
 G
 I smoke myself to sleep and blame

Chorus:
Bass
G-------------------------------------------------|
D-------------------------------------------------|
A-------------------------------------------------|
E-3s8----------------8-------3--------------------|
Horn
e-------------------------------------------------|
B-------------------------------------------------|
G-------------------------------------------------|
D----2-----------------------------4~ s 5---------|
A-3-----------------------------------------------|
E-------------------------------------------------|
Piano
e---------------------------------------------|
B----1---------------1------------------------|
G----0---------------0------------------------|
D----2---------------2------------------------|
A---------------------------------------------|
E---------------------------------------------|
 C
 postmodern things I can't relate,

Bass
G-------------------------------------------------|
D-------------------------------------------------|
A-------------------------------------------------|
E-3s8------------------8------3-------------------|
Horn
e---------------------------------------------|
B---------------------------------------------|
G---------------------------------------------|
D---------------------------------------------|
A---------------------------------------------|
E---------------------------------------------|
Piano
e---------------------------------------------|
B----1-----------------1----------------------|
G----0-----------------0----------------------|
D----2-----------------2----------------------|
A---------------------------------------------|
E---------------------------------------------|
 C
 like summer camp and coastal states.

Bass
G-------------------------------------------------|
D-------------------------------------------------|
A-------------------------------------------------|
E-0s5-------------5------0------------------------|
Horn
e-------------------------------------------------|
B-------------------------------4-5---------------|
G-5-4-3-2-----------------------------------------|
D-------------------------------------------------|
A-------------------------------------------------|
E-------------------------------------------------|
Piano
e---------------------------------------------|
B----1------------1---------------------------|
G----2------------2---------------------------|
D----2------------2---------------------------|
A---------------------------------------------|
E---------------------------------------------|
 Am
 Like alcohol and coffee beans.

Bass
G---------------------------------------------------|
D---------------------------------------------------|
A---------------------------------------------------|
E-0s5-------------5---0-----------------------------|
Horn
e---------------------------------------------------|
B-1-------------------------------------------------|
G---------------------2-1-0-------------------------|
D---------------------------3~~~~~~~~~~~~~~~~~~~~~--|
A-----------0---------------------------------------|
E---------------------------------------------------|
Piano
e---------------------------------------------------|
B-1---------------1---1-----------------------------|
G-2---------------2---2-----------------------------|
D-2---------------2---2-----------------------------|
A---------------------------------------------------|
E---------------------------------------------------|
 Am
 Dance floors and magazines.

Bass
G---------------------------------------------------|
D---------------------------------------------------|
A---------------------------------------------------|
E-1s8--------------------8---1----------------------|
Horn
e--------------------------------------------------|
B--------------------------------------------------|
G--------------------------------------------------|
D-3~~~~~~~~~~~~~~~~~~~~~~~~~~~~~~~~~~~~~~~~~~~~~~--
A--------------------------------------------------|
E--------------------------------------------------|
Piano
e--------------------------------------------------|
B------1---------1-------1-------------------------|
G------2---------2-------2-------------------------|
D------3---------3-------3-------------------------|
A--------------------------------------------------|
E--------------------------------------------------|
       F
  I    think its safe to say

Bass
G--------------------------------------------------|
D--------------------------------------------------|
A--------------------------------------------------|
E-8s1----------------------------------------------|
Horn
e--------------------------------------------------|
B------------------------1~~~~---------------------|
G-0~--------2~-------------------------------------|
D--------------------------------------------------|
A--------------------------------------------------|
E--------------------------------------------------|
Piano
e--------------------------------------------------|
B-----------1--------------------------------------|
G-----------2--------------------------------------|
D-----------3--------------------------------------|
A--------------------------------------------------|
E--------------------------------------------------|
 F
 "I've only got myself to blame"


Bass
G--------------------------------------------------|
D--------------------------------------------------|
A--------------------------------------------------|
E-0--1---2------3--------------------3-------------|
Horn
e--------------------------------------------------|
B-1--1---3-----------------------------------------|
G------------4--------------------0----------------|
D--------------------------------------------------|
A--------------------------------------------------|
E--------------------------------------------------|
Piano
e--------------------------------------------------|
B--------------------------------------------------|
G------------4---------------------4---------------|
D------------5---------------------5---------------|
A------------5---------------------5---------------|
E--------------------------------------------------|
             G
 but boys in swooping haircuts are bringing me down,

Bass
G-------------------------------------------------|
D-------------------------------------------------|
A-------------------------------------------------|
E-3-3----3-3----3--3-----3-3-3-3-3----------------|
Solo Horn
e-------------------------------------------------|
B--------------------------3-5~~~~~~~-5-----------|
G----------------1-2-3-4-5------------------------|
D-------1-2-3-4-5---------------------------------|
A-------------------------------------------------|
E-------------------------------------------------|
Piano
e-------------------------------------------------|
B-----------------------------3-------------------|
G---4-------4------4-----4--4-4-------------------|
D---5-------5------5-----5--5---------------------|
A-------------------------------------------------|
E-3------3------3---------------------------------|
 G
 taking pictures of themselves, oh.

Solo:
Bass
G----------------------------------------------------------|
D----------------------------------------------------------|
A-3-3-3---------3-3-3-----------0-0-0--------0--0--0-------|
E-------3-3-3----------3-3-3----------0-0-0----------0-0-0-|
Horn
e------------------------------------------------------------------|
B------------------------------------------------------------------|
G------------------------------------------------------------------|
D-2-----2--------2-----2--------------------------------2----------|
A---3-5---5-3------3-5---5-3-----3-2-2--3-2-0-----0---0------------|
E-------------3--------------3----------------0-0---4--------------|
Solo Horn
E-3-6^8~~~~~~~~~~--5-0---------------------------------------------|
B----------------------1-------------------------------------------|
G------------------------2----------------1--2-2-1-0---------------|
D---------------------------------2-3-4-5------------3-------------|
A------------------------------------------------------------------|
E------------------------------------------------------------------|
(-Instrumental-)
 C G C G A E A E

Bass
G--------------------------------------------------------------------------------------------|
D--------------------------------------------------------------------------------------------|
A---------3-3-3-------3-3-3-2--2------2--2--------(And so I!)--------------------------------|
E--1-1--1-------1-1-1------------3--3------3--3---3-3-3-3-3-3-3------------------------------|
Solo Horn (play over "And so I")
e--------------------------------------------------------------------------------------------|
B-------------------------------------------------------------------3-5~~~~~~~-5-------------|
G----------------------------------------------------------1-2-3-4-5-------------------------|
D-------------------------------------------------1-2-3-4-5----------------------------------|
A--------------------------------------------------------------------------------------------|
E--------------------------------------------------------------------------------------------|
Horn
e------------------------------------------------------------------|
B------------------------------------------------------------------|
G------------------------------------------------------------------|
D------------------------------------------------(0)-5-3-2-0-------|
A-0---0---0-3--0---0---0-3--3-3-5-2-2-2-0------(2)-----------------|
E---4---4--------4---4-------------------3-(3)---------------------|
(-Instrumental-)                                    And so I
 F C F C B G B G G!

2nd Verse:
Piano
e---------------------------------------------|
B-1--------1------1---------1-----------------|
G-0--------0------0---------0-----------------|
D-2--------2------2---------2-----------------|
A---------------------------------------------|
E---------------------------------------------|
  C
  walk the web in search of love,

Horn
e----------------------------------------------|
B----------------------------------------------|
G-----5----4----3----2----1~~~~~~~~~~~~~~~~~~~-|
D----------------------------------------------|
A----------------------------------------------|
E----------------------------------------------|
Piano
e---------------------------------------------|
B-1----------1-------1------1-----------------|
G-0----------0-------0------0-----------------|
D-2----------2-------2------2-----------------|
A---------------------------------------------|
E---------------------------------------------|
  C
  but always seem to end up stuck

Horn
e---------------------------------------------|
B---------------------------------------------|
G-1~~~~~~~~~~~~~~~~~~~~~~~~~~~~~~~~~~~~~~~----|
D---------------------------------------------|
A---------------------------------------------|
E---------------------------------------------|
Piano
e---------------------------------------------|
B-----1-------1--------1----1-----------------|
G-----2-------2--------2----2-----------------|
D-----2-------2--------2----2-----------------|
A---------------------------------------------|
E---------------------------------------------|
      Am
  I'm finding flaws in everyone

Horn
e---------------------------------------------|
B---------------------------------------------|
G------------------2-----1-----0--------------|
D-----------------------------------3---------|
A---------------------------------------------|
E---------------------------------------------|
Piano
e---------------------------------------------|
B------1-----------1-----------1-----1--------|
G------2-----------2-----------2-----2--------|
D------2-----------2-----------2-----2--------|
A---------------------------------------------|
E---------------------------------------------|
       Am
  I've reached the point where all I want

Horn
e---------------------------------------------|
B---------------------------------------------|
G----------------------0-----1----2-----------|
D--------3~~~~~~------------------------------|
A---------------------------------------------|
E---------------------------------------------|
Piano
e----------------------------------------------------------|
B-------1-----1---------1----------1------1-----1----1-----|
G-------2-----2---------2----------2------2-----2----2-----|
D-------3-----3---------3----------3------3-----3----3-----|
A----------------------------------------------------------|
E----------------------------------------------------------|
        F
  is to sleep around in hopes that I will catch back up

Horn
e-------------------------------------------------------------------|
B-------------------------------------------------------------------|
G--------------------------------------------2----------4~~~~~~~~~~-|
D----------5~~~~~~~~~~~~~~~~~~~~~~~~~~~~~~5~------------------------|
A-------------------------------------------------------------------|
E-------------------------------------------------------------------|
Piano
e------------------------------------------------------------------------------------|
B------------------------------------------------------------------------------------|
G----------4--------4-------------4----------4--------------4-----4--------4---------|
D----------5--------5-------------5----------5--------------5-----5--------5---------|
A----------5--------5-------------5----------5--------------5-----5--------5---------|
E------------------------------------------------------------------------------------|
           G
 We are in parallel lines, we are running in circles, we're never meant to cross!


Bass
G------------------------------------------------------------------|
D------------------------------------------------------------------|
A-----------3--3--3--------------------3--3--3---------------------|
E--------------------------3-3-3--------------------3-3-3----------|
Horn
e------------------------------------------------------------------|
B----------1~~~~~~~~~~~~~~~~~~~~~~~~~~~~~-1----0-------------------|
G-----------------------------------------------------3---2--------|
D------------------------------------------------------------------|
A------------------------------------------------------------------|
E------------------------------------------------------------------|
Piano
e------------------------------------------------------------------|
B----------1--------1-------1----1--------1----1-------1-----1-----|
G----------0--------0-------0----0--------0----0-------0-----0-----|
D----------2--------2-------2----2--------2----2-------2-----2-----|
A------------------------------------------------------------------|
E------------------------------------------------------------------|
           Am7
  I'm at a loss you were my tangerine, my pussycat, my trampoline.


Bass
G-----------------------------------------------------------------|
D-----------------------------------------------------------------|
A---0----0-0-----------------------0---0---0----------------------|
E------------------0--0----0----------------------0------0-0------|
Horn
e-----------------------------------------------------------------|
B--1~~~~~~~~~~~~~~~~~~~~~~~~~~~~~-1----0--------------------------|
G--------------------------------------------------3--------2-----|
D-----------------------------------------------------------------|
A-----------------------------------------------------------------|
E-----------------------------------------------------------------|
 A
 Now alls I get are wincing cheeks, "Dog Problems" I signed a lease


Bass
G--------------------------------------------------------------------------------------|
D--------------------------------------------------------------------------------------|
A----------3--3--3------------------3-3-3----------------2-----------------------------|
E--1--1--1-----------------1--1--1-----------------------------------------------------|
Horn
e------------------------------------------------------------------|
B-----------------------------------------------------3------------|
G------------------------------1s2-------------5-5--------4--------|
D-3----------4p5---------------------------------------------------|
A------------------------------------------------------------------|
E------------------------------------------------------------------|
 F
 Thinking my heart belonged to 93rd and Park, instead I - broke a girls heart

G------------------------------------------------------------------|
D------------------------------------------------------------------|
A------------------------------------------------------------------|
E---3--------------------------------------------------------------|
Horn
e------------------------------------------------------------------|
B------------------------------------------------------------------|
G---5--------------------------------------------------------------|
D------------------------------------------------------------------|
A------------------------------------------------------------------|
E------------------------------------------------------------------|
 G
 and flew back to Phoenix

Bass
G-----------------------------------------------------------------|
D-----------------------------------------------------------------|
A---2--------------------3---5------------------------------------|
E-----------------------------------------------------------------|
Horn
e------------------------------------------------------------------|
B---3--------------------5---6-------------------------------------|
G------------------------------------------------------------------|
D------------------------------------------------------------------|
A------------------------------------------------------------------|
E------------------------------------------------------------------|
    Gsus4                 C   Csus4
 to finish the year as it started.

Bridge:
        C
Can you hear me?
Are you listening?
Horn
e------------------------------------------------------------------|
B-----------------------------------------6-5-6----1-3-------------|
G---------------5-4-5----------------------------------------------|
D------------------------------------------------------------------|
A------------------------------------------------------------------|
E------------------------------------------------------------------|
             Am             F
 This is the sound    of my heart breaking.

Horn
e------------------------------------------------------------------|
B------5-----------------------------------------------------------|
G------------------------------------------------------------------|
D------------------------------------------------------------------|
A------------------------------------------------------------------|
E------------------------------------------------------------------|
       C
 and I hope it's entertaining,

Horn
e-------------3-1-0---0----3--1--0--3--1--------------------------|
B-----------5-----------------------------------------------------|
G-----------------------------------------------------------------|
D-----------------------------------------------------------------|
A-----------------------------------------------------------------|
E-----------------------------------------------------------------|
            Am        F
 cause' for me it's a bitch.

Horn
e-----------------------------------------------------------------|
B-------5---------------------------------------------------------|
G-----------------------------------------------------------------|
D-----------------------------------------------------------------|
A-----------------------------------------------------------------|
E-----------------------------------------------------------------|
        C
 Was it worth it?

when you slept with him?
Horn
e---------------3-1-0----------------------------------------------|
B---------------------3--------------------------------------------|
G------------------------------------------------------------------|
D------------------------------------------------------------------|
A------------------------------------------------------------------|
E------------------------------------------------------------------|
                Am                  F
 Did you get it all     out of your system?

Breakdown:
Horn
e-------3-3--------------------------------------------------------|
B------------------------------------------------------------------|
G------------------------------------------------------------------|
D------------------------------------------------------------------|
A------------------------------------------------------------------|
E------------------------------------------------------------------|
 C
 I am over that.

Horn
e------------5-5---------------------------------------------------|
B------------------------------------------------------------------|
G------------------------------------------------------------------|
D------------------------------------------------------------------|
A------------------------------------------------------------------|
E------------------------------------------------------------------|
 Am
 Hope you don't get up.

Horn
e------------7-7---------------------------------------------------|
B------------------------------------------------------------------|
G------------------------------------------------------------------|
D------------------------------------------------------------------|
A------------------------------------------------------------------|
E------------------------------------------------------------------|
 G
 I couldn't breathe.

Horn
e---------------------8-8------------------------------------------|
B------------------------------------------------------------------|
G------------------------------------------------------------------|
D------------------------------------------------------------------|
A------------------------------------------------------------------|
E------------------------------------------------------------------|
 F
 Caught me on the cross.

Horn
e------------10-10-------------------------------------------------|
B------------------------------------------------------------------|
G------------------------------------------------------------------|
D------------------------------------------------------------------|
A------------------------------------------------------------------|
E------------------------------------------------------------------|
 G
 I didnt know.

Horn
e--------13-12-13--------------------------------------------------|
B------------------------------------------------------------------|
G------------------------------------------------------------------|
D------------------------------------------------------------------|
A------------------------------------------------------------------|
E------------------------------------------------------------------|
 Am             G
 I couldn't give up.

The Finale:
Horn
e------------------------------------------------------------------|
B------------------------------------------------------------------|
G------------------------------------------------------------------|
D------------------------------------------------------------------|
A-3------------------------3---------------------3-2-1-0-----------|
E-------------------------3----------------------------------------|
  C
  B is for believing you'd always be here for me.

Horn
e------------------------------------------------------------------|
B------------------------------------------------------------------|
G------------------------------------------------------------------|
D------------------------------------------------------------------|
A--------------------------0---------------------0-----------------|
E-------------------------0------------------------4-3-1-----------|
  Am
  E is for everything, even when we'd see it though.

Horn
e------------------------------------------------------------------|
B------------------------------------------------------------------|
G------------------------------------------------------------------|
D------------------------------------------------------------------|
A------------------------------------------------------------------|
E-1-------------------------3-4-5----------------0-1-2-------------|
  F
  C, C is for seeing through you, you are a fake,

Horn
e--------------------------------------------------------------|
B--------------------------------------------------------------|
G--------------------------------------------------------------|
D--------------------------------------------5------4---3---2--|
A--------------------------------------------------------------|
E--------------------------------------------------------------|
  G
  which brings me to A because, because, you always run away.

Horn
e--------------------------------------------------------------|
B-------1~~~~~~~~~~~~~~~~~~~~~~~~~~~~~~~~~~~~~~~~~~~~~~~~------|
G--------------------------------------------------------------|
D--------------------------------------------------------------|
A--------------------------------------------------------------|
E--------------------------------------------------------------|
 C
 I never finish phrases,
 I misspell,

Horn
e--------------------------------------------------------------|
B-1------------------------------------------------------------|
G---------------2------4---------------------------------------|
D------4s5-----------------------------------------------------|
A--------------------------------------------------------------|
E--------------------------------------------------------------|
  open arms are prison cells.

Horn
e--------------------------------------------------------------|
B--------------------------------------------------------------|
G-------2-------4---------------5------------------------------|
D--------------------------------------------------------------|
A--------------------------------------------------------------|
E--------------------------------------------------------------|
 Am
 when I said, "I hate what I've become"

Horn
e--------------------------------------------------------------|
B--1p2h1-------------------------------------------------------|
G--------2p3h2-1p2h1-0p1h0---2-1-0-----------------------------|
D----------------------------------3---------------------------|
A--------------------------------------------------------------|
E--------------------------------------------------------------|
 I lied, I hated who I was.

Horn
e--------------------------------------------------------------|
B--------------------------------------------------------------|
G--------------------0----1----2------2p0h2p0h2p0h2p0h2--------|
D---3----------------------------------------------------------|
A--------------------------------------------------------------|
E--------------------------------------------------------------|
    F
 So when you start to wonder 'bout the strain in my throat,
Horn
e-------------------------------------------------------------------|
B---------------0~~~~~~~~~~~~~~~~~~~~~~~~~~~~~~~~~~~~~~~5--6--0--3--|
G-------------------------------------------------------------------|
D-------------------------------------------------------------------|
A-------------------------------------------------------------------|
E-------------------------------------------------------------------|
                G                                                 C
 then don't you ever, no never, ever, speak for someone you don't know.

Outro:
Horn
e---------------------------------------------------------------------------|
B---------------------------------------------------------------------------|
G---------------------------------------------------------------------------|
D----------------------------0-1-2------------------------------------------|
A----------------------------------3----------------------------------------|
E---------------------------------------------------------------------------|
Piano
e--------------------------------------------------------------|
B--4-5---3-5-3-------------4-5---------------------------------|
G------5-------5-----------------------------------------------|
D----------------5---------------------------------------------|
A--3-----3---3-------------------------------------------------|
E--------------------------------------------------------------|

=============================================================================
Solo Guitar copy:

1st Verse:
e-------------------------------------------------|
B-0-----1--------5--------------------------------|
G-0--------------0--------------------------------|
D----------------2--------------------------------|
A-3--------------3--------------------------------|
E-------------------------------------------------|
 C
 Don't you dare, speak for someone you don't know.

e-------------------------------------------------|
B-------------------------------------------------|
G-------------------------------------------------|
D-------------------------------------------------|
A-------------------------------------------------|
E-------------------------------------------------|
 They'll feel it in the back of their throat.

e-------------------------------------------------|
B---1---------------------------------------------|
G---2---------------------------------------------|
D---2---------------------------------------------|
A---3---------------------------------------------|
E-------------------------------------------------|
 Am/C
 We know I can't construct a poem,

e-------------------------------------------------|
B-------------------------------------------------|
G-------------------------------------------------|
D-------------------------------------------------|
A-------------------------------------------------|
E-------------------------------------------------|
 cause' words, like girls get bored and run

e-------------------------------------------------|
B-------------------------------------------------|
G---------2---------------------------------------|
D---------3---------------------------------------|
A---------3---------------------------------------|
E-------------------------------------------------|
          F
 c'est la vie, I say I've got so many better things

e-------------------------------------------------|
B-------------------------------------------------|
G---------4~--------------------------------------|
D---------5~--------------------------------------|
A---------5~--------------------------------------|
E---------3~--------------------------------------|
          G
 I've got nothing, you should see me,

e-------------------------------------------------|
B-----------------------------3-------------------|
G---4-------4------4-----4--4-4-------------------|
D---5-------5------5-----5--5---------------------|
A-------------------------------------------------|
E-3------3------3---------------------------------|
 G
 I smoke myself to sleep and blame

Chorus:
e---------------------------------------------|
B----1------x--------1------------------------|
G----0------x--------0------------------------|
D----2------x--------2------------------------|
A----3------x--------3------------------------|
E-3------------------------3------------------|
 C
 postmodern things I can't relate,

e---------------------------------------------|
B-----1------x---------1----------------------|
G-----0------x---------0----------------------|
D-4s5-2------x---------2----------------------|
A-----3------x---------3----------------------|
E-3---------------------------3---------------|
 C
 like summer camp and coastal states.

                  X
e---------------------------------------------|
B----1------------1-------------4-5-----------|
G-5 s2------------2---------------------------|
D----2------------2---------------------------|
A----0------------0---------------------------|
E-0----------------------0--------------------|
 Am
 Like alcohol and coffee beans.

e---------------------------------------------------|
B-1----x------x---1---1-----------------------------|
G-2----x------x---2---2-1-0-------------------------|
D-2----x------x---2---2-----3~~~~~~~~~~~~~~~~~~~~~--|
A------0------0---0---------------------------------|
E-0-------------------0-----------------------------|
 Am
 Dance floors and magazines.

e--------------------------------------------------|
B------1---------1-------1-------------------------|
G------2---------2-------2-------------------------|
D-~~~~~3---------3-------3-------------------------|
A------3---------3---------------------------------|
E-1----------------------1-------------------------|
       F
  I    think its safe to say

e---------------------------------------------------|
B-----------1-------------1~~~~~~~~~~~~~~~~~~~~~~~~-|
G-0~~~~~~~~~2~~~~~~~~~~~~~--------------------------|
D-----------3---------------------------------------|
A-3-------------------------------------------------|
E------1--------------------------------------------|
 F
 "I've only got myself to blame"

e--------------------------------------------------|
B1---1----3----------------------------------------|
G------------4---------------------0---------------|
D------------5---------------------5---------------|
A------------5---------------------5---------------|
E0---1----2--3---------------------3---------------|
             G
 but boys in swooping haircuts are bringing me down,

e-------------------------------------------------|
B-----------------------------3-------------------|
G---4-------4------4-----4--4-4-------------------|
D---5-------5------5-----5--5---------------------|
A-------------------------------------------------|
E-3------3------3---------------------------------|
 G
 taking pictures of themselves, oh.

Solo:
e----------------3---------------5---0----------------------------------|
B-5-------------------------------------1-------------------------------|
G----------------------3s5------------------2-------------------(1-2)---|
D-2-----2--------2---0-2---------------------------------2-(3-4-5)------|
A-3-3-5---5-3-2--3-3-----5-3-5---3-2-2--3-2-0-----0---0-----------------|
E-------------3--------------3----------------0-0---4-------------------|
(-Instrumental-)

e-----------------------------------------------------------------|
B-----------------------------------------------------------------|
G~~---------------------------------------------------------------|
D--------------------------------------------------(0)-5-3-2-0----|
A-0---0---0-3--0---0---0-3--3-3-5-2-2-2-0------(2)----------------|
E---4---4--------4---4--------------------3-(3)-------------------|
(-Instrumental-)                                       And so I

2nd Verse:
e---------------------------------------------|
B-1--------1------1---------1-----------------|
G-0--------0------0---------0-----------------|
D-2--------2------2---------2-----------------|
A---------------------------------------------|
E---------------------------------------------|
  C
  walk the web in search of love,

e---------------------------------------------|
B-1----------1-------1------1-----------------|
G-0----------0-------0------0-----------------|
D-2----------2-------2------2-----------------|
A---------------------------------------------|
E---------------------------------------------|
  C
  but always seem to end up stuck

e---------------------------------------------|
B-----1-------1--------1----1-----------------|
G-1---1p2-----2--------2----2-----------------|
D-----2-------2--------2----2-----------------|
A---------------------------------------------|
E---------------------------------------------|
      Am
  I'm finding flaws in everyone

e---------------------------------------------|
B------1-----------1-----------1-----1--------|
G------2-----------2-----1-----0-----2--------|
D------2-----------2-----------2-----3--------|
A---------------------------------------------|
E---------------------------------------------|
       Am
  I've reached the point where all I want

e----------------------------------------------------------|
B-------1-----1---------1----------1------1-----1----1-----|
G-------2-----2---------0p2---1----2------2-----2----2-----|
D-------3-----3---------3----------3------3-----3----3-----|
A----------------------------------------------------------|
E----------------------------------------------------------|
        F
  is to sleep around in hopes that I will catch back up

e------------------------------------------------------------------------------------|
B------------------------------------------------------------------------------------|
G----------4--------4-------------4----------2--------------4-----4--------4---------|
D----------5--------5-------------5----------5--------------5-----5--------5---------|
A----------5--------5-------------5----------5--------------5-----5--------5---------|
E------------------------------------------------------------------------------------|
           G
 We are in parallel lines, we are running in circles, we're never meant to cross!

e--------------------------------------------------------------------|
B----------1--------1-------1----1--------1----0-------1-----0!------|
G----------0--------0-------0----0--------0----0-------3-----2-------|
D----------2--------2-------2----2--------2----2-------2-----2-------|
A----------3------------------------------3--------------------------|
E---------------------------3--------------------------3-------------|
           C
  I'm at a loss you were my tangerine, my pussycat, my trampoline.

e---------------------------------------------------------------------|
B--1~~~~~~~~~~~~~~~~1~~~~~~~~~~~~~~~-1----0---------------------------|
G--2----------------2----------------2----2---------3--------2--------|
D--2----------------2----------------2----2---------2--------2--------|
A--0---------------------------------0----0---------------------------|
E-------------------0-------------------------------0--------0--------|
 Am
 Now alls I get are wincing cheeks, "Dog Problems" I signed a lease

Horn
e------------------------------------------------------------------|
B-----------------------------------------------------3------------|
G------------------------------1s2-------------5-5--------4--------|
D-3----------4p5------------------------------------------5--------|
A-3----------------------------3--------------------------5--------|
E-1----------------------------1--------------------------3--------|
 F
 Thinking my heart belonged to 93rd and Park, instead I - broke a girls heart

e------------------------------------------------------------------|
B------------------------------------------------------------------|
G----5-------------------------------------------------------------|
D------------------------------------------------------------------|
A------------------------------------------------------------------|
E----3-------------------------------------------------------------|
 G
 and flew back to Phoenix

e------------------------------------------------------------------|
B---3--------------------5---6-------------------------------------|
G---0--------------------5---5-------------------------------------|
D---0--------------------5---5-------------------------------------|
A---2--------------------3---5-------------------------------------|
E------------------------------------------------------------------|
    Gsus4                 C   Csus4
 to finish the year as it started.

Bridge:
        C
Can you hear me?
Are you listening?

e------------0----0---0-----1---------------1-0-1-|
B------------1----0---1-----2---------------1-1-1-|
G---continue-2----2---2-----3---------------2-2-2-|
D----chord---2----2---2-----3---------------3-3-3-|
A------------0----0---0-----3---------------3-3-3-|
E---------------------------1---------------1-1-1-|
             Am             F
 This is the sound    of my heart breaking.

e------0------------------|
B-1--3-1------------------|
G------0-----continue-----|
D------2------chord-------|
A------3------------------|
E-------------------------|
       C
 and I hope it's entertaining,

e-----------0-3-1-0---1-----0-1-1---|
B-----------1-1-1-1---2-----1-1-3---|
G--continue-2-2-2-2---3-----2-2-2---|
D---chord---2-2-2-2---3-----3-3-3---|
A-----------0-0-0-0---3-----3-3-3---|
E---------------------1-----1-1-1---|
            Am        F
 cause' for me it's a bitch.

Horn
e3------0--------------|
B----1--1--------------|
G-------0---continue---|
D-------2-----chord----|
A-------3--------------|
E----------------------|
        C
 Was it worth it?
 when you slept with him?

e---------------3-------------------1-3-1-0-------------------------|
B---------------1-------------------1-------3-----------------------|
G---------------2-------------------2-------------------------------|
D---------------2-------------------3-------------------------------|
A---------------0-------------------3-------------------------------|
E-----------------------------------1-------------------------------|
                Am                  F
 Did you get it all     out of your system?

Breakdown:
e-------3-3--------------------------------------------------------|
B-1----------------------------------------------------------------|
G-0----------------------------------------------------------------|
D-2----------------------------------------------------------------|
A-3----------------------------------------------------------------|
E------------------------------------------------------------------|
 C
 I am over that.

e------------5-5---------------------------------------------------|
B-1----------------------------------------------------------------|
G-2----------------------------------------------------------------|
D-2----------------------------------------------------------------|
A-0----------------------------------------------------------------|
E------------------------------------------------------------------|
 Am
 Hope you don't get up.

e-3----------7-7---------------------------------------------------|
B-3----------------------------------------------------------------|
G-0----------------------------------------------------------------|
D-0----------------------------------------------------------------|
A-2----------------------------------------------------------------|
E-3----------------------------------------------------------------|
 G
 I couldn't breathe.

e-1-------------------8-8------------------------------------------|
B-1----------------------------------------------------------------|
G-2----------------------------------------------------------------|
D-3----------------------------------------------------------------|
A-3----------------------------------------------------------------|
E-1----------------------------------------------------------------|
 F
 Caught me on the cross.

e-3----------10-10-------------------------------------------------|
B-3----------------------------------------------------------------|
G-0----------------------------------------------------------------|
D-0----------------------------------------------------------------|
A-2----------------------------------------------------------------|
E-3----------------------------------------------------------------|
 G
 I didnt know.

e-0-------------3---------------------------------------------------|
B-1-------------3---------------------------------------------------|
G-2-------------4---------------------------------------------------|
D-2-------------5---------------------------------------------------|
A-0-------------5---------------------------------------------------|
E---------------3---------------------------------------------------|
 Am             G
 I couldn't give up.

The Finale:
e------------------------------------------------------------------|
B-1----------------------------------------------------------------|
G-0----------------------------------------------------------------|
D-2----------------------------------------------------------------|
A-3------------------------3---------------------3-2-1-------------|
E-------------------------3----------------------------------------|
  C
  B is for believing you'd always be here for me.

e------------------------------------------------------------------|
B-1----------------------------------------------------------------|
G-2----------------------------------------------------------------|
D-2----------------------------------------------------------------|
A-0------------------------0---------------------0-----------------|
E-------------------------0------------------------4-3-------------|
  Am
  E is for everything, even when we'd see it though.

e------------------------------------------------------------------|
B-1----------------------------------------------------------------|
G-2----------------------------------------------------------------|
D-3----------------------------------------------------------------|
A-3----------------------------------------------------------------|
E-1-------------------------3-4-5----------------0-1-2-------------|
  F
  C, C is for seeing through you, you are a fake,

e-3-------------------------------------------------------------|
B-3-------------------------------------------------------------|
G-0-------------------------------------------------------------|
D-0-------------------------------------------5------4---3---2--|
A-2-------------------------------------------------------------|
E-3-------------------------------------------------------------|
  G
  which brings me to A because, because, you always run away.

e--------------------------------------------------------------|
B-1-----1~~~~~~~~~~~~~~~~~~~~~~~~~~~~~~~~~~~~~~~~~~~~~~~~------|
G-0------------------------------------------------------------|
D-2------------------------------------------------------------|
A-3------------------------------------------------------------|
E--------------------------------------------------------------|
 C
 I never finish phrases,
 I misspell,

e--------------------------------------------------------------|
B-1------------------------------------------------------------|
G-0-------------2------4---------------------------------------|
D-2----4s5-----------------------------------------------------|
A-3------------------------------------------------------------|
E--------------------------------------------------------------|
  C
  open arms are prison cells.

e--------------------------------------------------------------|
B-1------------------------------------------------------------|
G-2-----2-------4---------------5------------------------------|
D-2------------------------------------------------------------|
A-0------------------------------------------------------------|
E--------------------------------------------------------------|
 Am
 when I said, "I hate what I've become"

e--------------------------------------------------------------|
B--1p2h1-------------------------------------------------------|
G--------2p3h2-1p2h1-0p1h0---2-1-0-----------------------------|
D----------------------------------3---------------------------|
A--------------------------------------------------------------|
E--------------------------------------------------------------|
 Am
 I lied, I hated who I was.

e---1------------------------------------------------------------|
B---1------------------------------------------------------------|
G---2--------0--------1------2---------2p0h2p0h2p0h2p0h2---------|
D---3------------------------------------------------------------|
A---3------------------------------------------------------------|
E---1------------------------------------------------------------|
    F
 So when you start to wonder 'bout the strain in my throat,

e-------------------------------------------------------------------|
B---------------0~~~~~~~~~~~~~~~~~~~~~~~~~~~~~~~~~~~~~~~5--6--0--1--|
G---------------0------------------------------------------------0--|
D---------------0------------------------------------------------2--|
A---------------2------------------------------------------------3--|
E---------------3---------------------------------------------------|
                G                                                 C
 then don't you ever, no never, ever, speak for someone you don't know.

Outro:
e--------------------------------------------------------------|
B--4p5---3-5-3-------------4p5------------1--------------------|
G------5-------5--------------------------0--------------------|
D----------------5------------0p1p2-------2--------------------|
A--3-----3---3-------------3--------3-----3--------------------|
E--------------------------------------------------------------|





Comments


Popular Format tabs & chords
She Doesn't Get It Bass Tabs
On Your Porch Chords
She Doesn't Get It 2 Chords
Wait Wait Wait 1 Chords
Snails Tabs
The Compromise 2 Tabs
Tie The Rope 1 Tabs
Dead End Ukulele
On Your Porch Ukulele
Tune Out Ukulele


Song lyrics



↑ Back to top | Tablatures and chords are parodies/interpretations of the original songs. You may use it for private study, scholarship, research or language learning purposes only
© 2014 AZChords.com Contact us | Privacy policy | DMCA | Add/correct tabs | Request tabs | Top 50 tabs