» » »

Dog Problems Tabs (ver.1)

Artists:  A B C D E F G H I J K L M N O P Q R S T U V W X Y Z # 

Dog Problems Tabs (ver.1)

Format
Rating:
4/5 (5 votes)

Hard to play? Try these video lessons and learn fast.
                The Format

-----------------1---3----------------------|
--1~-----1---1---1---3----------------------|
--0~-----0---2---2--------------------------|
--2~-----2---2---3--------------------------|
--3~-----3-----------2----------------------|
---------------------3----------------------|

Where he sings"can you hear me"
---------1--------1---------------------|
---1--1--1--1--1--1---------------------|
---0--2--2--0--2--2---------------------|
---2--2--3--2--2--3---------------------|
---3--------3---------------------------|
----------------------------------------|

"B is for believing"
---------1--3--------------------------|
---1--1--1--3--------------------------|
---0--2--2-----------------------------|
---2--2--3-----------------------------|
---3--------2--------------------------|
------------3--------------------------|

Basically it.
            
Hard to play? Try these video lessons and learn fast. | Correct




comments powered by Disqus
↑ Back to top | Tablatures and chords are parodies/interpretations of the original songs. You may use it for private study, scholarship, research or language learning purposes only