» » »

Foreign Objects, Planetary Tabs (ver.1)

Artists:  A B C D E F G H I J K L M N O P Q R S T U V W X Y Z # 

Planetary Tabs (ver.1)

Foreign Objects Tabs
 Rating:
4/5 (4 votes)
Planetary lessons Tabs too difficult? Try these video lessons and learn fast
                Tuning:1/2 step down
This is an old instrumental song I strongly recommend you download it if you havn't already.

Main Riff/Intro x4
-|----------------------------------------------------------------------------|
-|----------------------------------------------------------------------------|
-|-------5---9--0-----9--0-------------5---7--0----7------5-------------------|
-|-----7---7-----------------5-------7---7------------------------------------|
-|--0--------------7-------7------0--------------7----7-----------------------|
-|----------------------------------------------------------------------------|

    riff A                         riff B   x2
-|----------------------------------------------------------------------------|
-|----------------------------------------------------------------------------|
-|------------------9999--7777------------------------------------------------|
-|-77777-77-7777----9999--7777------------------------------------------------|
-|-77777-77-7777----7777--5555------------------------------------------------|
-|-55555-55-5555--------------------0-2-0-2-0-2-0-2-4-0-4-0-4-0-4-0-----------|


(Play Riff A, guitar 2) Solo
-|----------------------------------------------------------------------------|
-|----------------------------------------------------------------------------|
-|-------------------------------------------------------------------------9--|
-|-9--7p5h7~---7-5-7-12-10---9\7---7\5/7----------7/9---7/12-7/9-7-5-7-5h7----|
-|---------------------------------------7--5-77------------------------------|
-|----------------------------------------------------------------------------|


-|----------------------------------------------------------------------------|
-|----------------------------------------------------------------------------|
-|-7--------------------------------------------------------------------------|
-|----9-7--5h7-7/9--9/12--14-12-14h16-14-12-----------------------------------|
-|----------------------------------------------------------------------------|
-|----------------------------------------------------------------------------|

break after solo
-|----------------------------------------------------------------------------|
-|----------------------------------------------------------------------------|
-|-5----5555--7-5555-5--7-5555-5--7-5555/9999---------------------------------|
-|-5--------------------------------------------------------------------------|
-|-3--------------------------------------------------------------------------|
-|----------------------------------------------------------------------------|


Lil Riff Guitar 2 plays "break after solo"
-|--------------------------------------------------------------------------------|
-|--------------------------------------------------------------------------------|
-|--------------------------------------------------------------------------------|
-|--------------------------------------------------------------------------------|
-|-/12vv-/11vv-/10vv-/9vv-8-7vvvv-------------------------------------------------|
-|--------------------------------------------------------------------------------|

Outro...the parenthese is what the 2nd guitar plays
-|-----------------------------------------------------------------------------|
-|-----------------------------------------------------------------------------|
-|---------------9-9-xx7-7-----------------------------------------------------|
-|-(7)-(5)---------------------------------------------------------------------|
-|---------(7)-----------------------------------------------------------------|
-|--5---3---0------------------------------------------------------------------|
     etary
            
Submit corrections

comments powered by Disqus
↑ Back to top | Foreign Objects Tabs for Planetary. Lyrics for acoustic guitar and electric guitar. Tablatures and chords are parodies/interpretations of the original songs. You may use it for private study, scholarship, research or language learning purposes only