» » »

Foreign Objects, Planetary Tabs (ver.2)

Artists:  A B C D E F G H I J K L M N O P Q R S T U V W X Y Z # 

Planetary Tabs (ver.2)

Foreign Objects Tabs
 Rating:
4/5 (4 votes)
Planetary lessons Tabs too difficult? Try these video lessons and learn fast
                -------------------------------------------------------------------------------
                             PLANETARY - Foreign Objects
-------------------------------------------------------------------------------
Tuning: STANDARD (EADGBe)


Intro
g------5----9------9-------------5----7------7---5-|
d----7---7----5------5---5-----7---7----5----------|
a--0------------7------7-----0------------7----7---|
e--------------------------------------------------|


Verse
g------------------------------------| 3x
d------------------------------------|
a--33333-33-33-3-3--77777-55-55-5-5--|
e--55555-55-55-5-5--88888-77-77-7-7--|

g--------------------------------| 1x
d--------------------------------|
a--33333-33-33-3-3--77777-55-55--|
e--55555-55-55-5-5--88888-77-77--|


Post-Verse
g---------------------------------------------------|
d-------------------------------2-----2-----2-----2-|
a---------------------------------------------------|
e--0--2--0--2--0--2--0--2----4-----4-----4-----4----|


(Repeat Verse & Post-Verse)


Main Riff Variation
g--------------------------------------------------|
d------5----9------9-------------5----7------7---5-|
a----7---7----5------5---5-----7---7----5----------|
e--0------------7------7-----0------------7----7---|


Solo Rhythm - 7/4 Time
g-------------------------------|
d-------------------------------|
a--33333-33-33-3-3--77777-55-55-|
e--55555-55-55-5-5--88888-77-77-|

g-------------------------------------|
d-------------------------------------|
a--55555-55-55-5-5---9-9-9-9-9--77-77-|
e--77777-77-77-7-7--1010101010--99-99-|


Solo
* = Staccato
g----------------------------------|---------------------------|
d--9p7p5--7~----7p5-7*--/12*--10~--|--9h10p9--7*--7h9p7--5*-7--|
a----------------------------------|---------------------------|
e----------------------------------|---------------------------|

g--------------------------------------------|
d------------------------/9---7*----/12--10--|
a--7----5----7*-5*-7*------------------------|
e--------------------------------------------|

g---------------------9*-7*----------------|
d--9----7-5--7----5h7-------9p7*--5*-7*-9--|
a------------------------------------------|
e------------------------------------------|

g-------------9--|--7--/11---9---7-|
d--/9---/12------|-----------------|
a----------------|-----------------|
e----------------|-----------------|


(Repeat Intro)


2nd Solo
e--/17--15*----------------------------------------------------------|
b------------17-15*-13-15~---13h15h17p15p13-12~---12h13h15p13p12-10~-|
g--------------------------------------------------------------------|
d--------------------------------------------------------------------|
a--------------------------------------------------------------------|
e--------------------------------------------------------------------|

Rhythm
g--5555-5555-5555-5555-|-5555-5555-5555-7h9-9-9-|
d--5555-5555-5555-5555-|-5555-5555-5555---------|
a--3333-3333-3333-3333-|-3333-3333-3333---------|
e----------------------|------------------------|

g------5----9------9-------------5----7------7---5-|
d----7---7----5------5---5-----7---7----5----------|
a--0------------7------7-----0------------7----7---|
e--------------------------------------------------|

g--5555-5555-5555-5555-|-5555-5555-5555-7h9-9-9-|
d--5555-5555-5555-5555-|-5555-5555-5555---------|
a--3333-3333-3333-3333-|-3333-3333-3333---------|
e----------------------|------------------------|


Repeat Verse Until End
            
Submit corrections

comments powered by Disqus
↑ Back to top | Foreign Objects Tabs for Planetary. Lyrics for acoustic guitar and electric guitar. Tablatures and chords are parodies/interpretations of the original songs. You may use it for private study, scholarship, research or language learning purposes only