» » »

Foreign Objects, Planetary Bass tabs (ver.1)

Artists:  A B C D E F G H I J K L M N O P Q R S T U V W X Y Z # 

Planetary Bass tabs (ver.1)

Foreign Objects Tabs
 Rating:
4/5 (4 votes)
Planetary lessons Tabs too difficult? Try these video lessons and learn fast
1
                -------------------------------------------------------------------------------
-------------------------------------------------------------------------------
Tuning: STANDARD (EADG)


Intro
g----------------------------------------------|
d----------------------------------------------|
a------3----/7-777-7777------3----/5-555-5555--|
e--5-5---5---------------5-5---5---------------|

g----------------------------------------------|
d----------------------------------------------|
a------3----/7-777-7777------3-----------------|
e--5-5---5---------------5-5---5---3-333-3333--|


Verse
g------------------------------------| 3x
d------------------------------------|
a------------------------------------|
e--55555-55-55-5-5--88888-77-77-7-7--|

g--------------------------------| 1x
d--------------------------------|
a--------------------------------|
e--55555-55-55-5-5--88888-77-77--|


Post-Verse
g-------------------------------------------|
d--------------------------6-6-6-6-6-6-6-6--|
a-------------------------------------------|
e--0--2--0--2--0--2--0--2-------------------|

g-------------------------------------------|
d--------------------------6-6-6-4---2-4-2--|
a-------------------------------------------|
e--0--2--0--2--0--2--0--2-------------------|


(Repeat Verse & Post-Verse)


Main Riff Variation
g---------------------------------------------------|
d------5----9------9-------------5----7------7---5--|
a----7---7----5------5---5-----7---7----5-----------|
e--0------------7------7-----0------------7----7----|


Solo - 7/4 Time
g--------------------------------|
d--------------------------------|
a--------------------------------|
e--55555-55-55-5-5--88888-77-77--|

g--------------------------------------|
d--------------------------------------|
a--------------------------------------|
e--77777-77-77-7-7--1010101010--99-99--|


(Repeat Intro)


2nd Solo
g----------------------|-----------------------|
d----------------------|-----------------------|
a--3333-3333-3333-3333-|-3333-3333-3333-(rest)-|
e----------------------|-----------------------|

g----------------------------------------------|
d----------------------------------------------|
a------3----/7-777-7777------3----/5-555-5555--|
e--5-5---5---------------5-5---5---------------|

g----------------------------------------------|
d----------------------------------------------|
a------3----/7-777-7777------3-----------------|
e--5-5---5---------------5-5---5---3-333-3333--|

g----------------------|-----------------------|
d----------------------|-----------------------|
a--3333-3333-3333-3333-|-3333-3333-3333-(rest)-|
e----------------------|-----------------------|


Repeat Verse Until End
            
Submit corrections

comments powered by Disqus
↑ Back to top | Foreign Objects Bass for Planetary. Lyrics for acoustic guitar and electric guitar. 1 Tablatures and chords are parodies/interpretations of the original songs. You may use it for private study, scholarship, research or language learning purposes only