» » »

Disengage The Simulator Tabs (ver.2)

Artists:  A B C D E F G H I J K L M N O P Q R S T U V W X Y Z # 

Disengage The Simulator Tabs (ver.2)

Foreign Objects
Rating:
4/5 (1 vote)

Hard to play? Try these video lessons and learn fast.
                ------------------------------------------------------------|
                 disengage the simulator - foreign objects -|

Tuning:EADGBE

 This is the demo version of CKY's disengage the simulator. Not a' lot of people know it 
first written by foreign objects.

 ---P.M---     ---P.M-------------------------------------------|
e|--------------------------------------------------------------|
B|--------------------------------------------------------------|
G|--------------------------------------------------------------|
D|-4-4-4-4---4--4-4-4-4---4-----3-------------------------------|
A|-4-4-4-4-4----4-4-4-4-4---4-1--4------------------------------|repeat as
E|-2-2-2-2------2-2-2-2-----------------------------------------|needed


e|------------------------------------------------------------|
B|------------------------------------------------------------|
G|------------------------------------------------------------|
D|-------4-4------------6-6--8-8------------------------------|
A|--6-6------6-6---4-4----------------------------------------|x 2
E|------------------------------------------------------------|


This is only the main verse of the song i will submit the rest later.

 Any questions feel free to e-mail to me
            
Hard to play? Try these video lessons and learn fast. | Correct




comments powered by Disqus
↑ Back to top | Tablatures and chords are parodies/interpretations of the original songs. You may use it for private study, scholarship, research or language learning purposes only