» » »

Foreign Objects, Disengage The Simulator Bass tabs (ver.1)

Artists:  A B C D E F G H I J K L M N O P Q R S T U V W X Y Z # 

Disengage The Simulator Bass tabs (ver.1)

Foreign Objects Tabs
 Rating:
4/5 (4 votes)
Disengage The Simulator lessons Tabs too difficult? Try these video lessons and learn fast
                -------------------------------------------------------------------------------
-------------------------------------------------------------------------------
Tuning: STANDARD (EADG)


Intro/Verse
g------------|--------------------------|
d------------|--------------4------3----|
a------------|------------4---4-------4-|
e-2222--2222-|-2222--2222--------6------|

g-----------------|-----------------|
d-----------------|-----------------|
a-666-666-444-444-|-222-222-444-444-|
e-----------------|-----------------|

g------------|--------------------------|
d------------|--------------4------3----|
a------------|------------4---4-------4-|
e-2222--2222-|-2222--2222--------6------|

g-----------------|-----------------|
d-----------------|-----------------|
a-666-666-444-444-|-222-222-444-444-|
e-----------------|-----------------|


Chorus
g-------------------------|----------------|
d--------/4-2---2---------|----------------|
a-------------4---0-------|-7-6-5-4--------|
e-2--2-2------------4-2-0-|----------0-2-0-|

g---------------------------|----------------|
d-----/4-/4---2---2---------|----------------|
a---4-----------4---0-------|-7-6-5-4--------|
e-2-------------------4-2-0-|----------0-2-0-|


(Repeat Verse & Chorus)


Breakdown
g---------------------------------|---------------------------------|
d-------4---------2---------------|-------4---------2---------------|
a-----4-----4---4---0-2-------0-2-|-----4-----4---4---0-2-------0-2-|
e-0-2-----0---2---------0-2-0-----|-0-2-----0---2---------0-2-0-----|

g-----------------------------|
d-----------------------------|
a-777777-555555-553333-335555-|
e-----------------------------|

g---------------------------------|---------------------------------|
d-------4---------2---------------|-------4---------2---------------|
a-----4-----4---4---0-2-------0-2-|-----4-----4---4---0-2-------0-2-|
e-0-2-----0---2---------0-2-0-----|-0-2-----0---2---------0-2-0-----|

g-----------------------------|
d-----------------------------|
a-777777-555555-553333-335555-|
e-----------------------------|


Guitar Solo
g---------------------------------|
d-------4---------2---------------|
a-----4-----4---4---0-2-------0-2-|
e-0-2-----0---2---------0-2-0-----|


Repeat Chorus

Repeat Verse

End on 2nd fret of the E string.
            
Submit corrections

comments powered by Disqus
↑ Back to top | Foreign Objects Bass for Disengage The Simulator. Lyrics for acoustic guitar and electric guitar. Tablatures and chords are parodies/interpretations of the original songs. You may use it for private study, scholarship, research or language learning purposes only