>
 >
Disengage The Simulator 1

Disengage The Simulator 1 Bass Tabs

Foreign Objects - Disengage The Simulator 1 chords, tabs, tablatures, lyrics

Guitar lessons | Add/correct | Request | Top 50 tabs Artists:  A B C D E F G H I J K L M N O P Q R S T U V W X Y Z 0-9

Disengage The Simulator 1 Bass Tabs – Foreign Objects

CD, Sheet music, Poster

Do you like Disengage The Simulator 1? Share with your friends now
Bass TabsBass Tabs v2TabsTabs v2
-------------------------------------------------------------------------------
			     DISENGAGE THE SIMULATOR - Foreign Objects
-------------------------------------------------------------------------------
Tuning: STANDARD (EADGBe)


the wrong section for some reason.


Intro/Verse
g-------------------------------|-------------------------------|
d----------4--------4------3----|----------4--------4------3----|
a--4-----4--------4---4--1---4--|--4-----4--------4---4--1---4--|
e--2-222-----2222---------------|--2-222-----2222---------------|

g---------------------|---------------------|
d-----44-66----66-88--|-----44-66----66-88--|
a--66-------44--------|--66-------44--------|
e---------------------|---------------------|

g-------------------------------|-------------------------------|
d----------4--------4------3----|----------4--------4------3----|
a--4-----4--------4---4--1---4--|--4-----4--------4---4--1---4--|
e--2-222-----2222---------------|--2-222-----2222---------------|

g---------------------|-----66-88----88-1010--| (Two guitars)
d-----44-66----66-88--|--88-44-66-66-66-8-8---|
a--66-------44--------|--66-------44----------|
e---------------------|-----------------------|


Chorus
g----------------------------------|------9-9---999-9/11-11--|
d-------------/4---2------7-6------|----6-------666-6/-8--8--|
a--4---4-------------4/7------9-6--|--7---------777-7/-9--9--|
e--2---2---2-----------------------|-------------------------|

g---------------------------------|------9-9---999-9/11-11--|
d--------/4--/4---2------7-6------|----6-------666-6/-8--8--|
a-----4-------------4/7------9-6--|--7---------777-7/-9--9--|
e--2------------------------------|-------------------------|


(Repeat Verse & Chorus)


Breakdown
g-------------------------|
d--------4---------2------|
a------4-----4---4---0-2--|
e--0-2-----0---2----------|

g-----------------------------------|-----------------------------------|
d--------4---------2----------------|--------4---------2----------------|
a------4-----4---4---0-2-------0-2--|------4-----4---4---0-2-------0-2--|
e--0-2-----0---2---------0-2-0------|--0-2-----0---2---------0-2-0------|

g----9---------5------------------|--7---9-----------5--------------|
d--5---5---6-7-----7-9-7---6-5-6--|----5-----5-6-7-----7-9---7-6-5--|
a---------------------------------|---------------------------------|
e---------------------------------|---------------------------------|

g-----------------------------------|-----------------------------------|
d--------4---------2----------------|--------4---------2----------------|
a------4-----4---4---0-2-------0-2--|------4-----4---4---0-2-------0-2--|
e--0-2-----0---2---------0-2-0------|--0-2-----0---2---------0-2-0------|

g---------------------------------|---------------------------------|
d---------------------------------|---------------------------------|
a----7---------3------------------|--5---7-----------3--------------|
e--3---3---4-5-----5-7-5---4-3-4--|----3-----3-4-5-----5-7---5-4-3--|


Solo - Rhythm guitar plays this 
(I didn't tab the solo because I don't particularly enjoy it.)
g-----------------------------------|
d--------4---------2----------------|
a------4-----4---4---0-2-------0-2--|
e--0-2-----0---2---------0-2-0------|


Repeat Chorus

Repeat Verse

End on F#5





Comments


Popular Foreign Objects tabs & chords
Genesis 12a Bass Tabs
Planetary Bass Tabs
Destination Undefined 1 Tabs
Disengage The Simulator 1 Tabs
Far Cry Behind Tabs
Planetary 1 Tabs
Testing Tabs
They Come In Peace 1 Tabs
Universal Culture Shock Tabs
Unsuccessful Journey Through The Astroid Belt Tabs


Song lyrics



↑ Back to top | Tablatures and chords are parodies/interpretations of the original songs. You may use it for private study, scholarship, research or language learning purposes only
© 2014 AZChords.com Contact us | Privacy policy | DMCA | Add/correct tabs | Request tabs | Top 50 tabs