» » »

The French Open Bass tabs (ver.1)

Artists:  A B C D E F G H I J K L M N O P Q R S T U V W X Y Z # 

The French Open Bass tabs (ver.1)

Foals
Rating:
0/5 (0 votes)

Hard to play? Try these video lessons and learn fast.
                Hi guys! It's been a very very long while since I've tabbed anything on here so
I'll start off with something easy, but still fun to play on bass.

Antidotes was one of my favourite albums from 2008 and this is a great opening track by Foals.

Foals - The French Opening

Intro - Bass comes in at 0:26
G--------------------------------------|
D---------------------10-------10h12---|
A----12----12-----12-------12----------|  X16
E--------------------------------------|
(h = hammer-on)

Verse - 1:25
G----------------|
D----------10----|
A----10h12-------| Repeat this all the way through the verse and chorus
E----------------|

End of Chorus - 2:09
G--------------------------|
D--------------------------|
A---12---12--------12------|
E--------------------------|

Play the intro again at 2:11

Then back to the verse at 2:24

Final Chorus - 3:04
G--------------------------------------------------------------------------|
D-----------------------------------------------------15-15-15--14-14-14---|
A----12-12-12--12--12-12-12-12--14--15--10-10-10--10-----------------------|
E--------------------------------------------------------------------------|

G--------------------------------------------------------------------------|
D--------------------------------------------------------------------------|
A----12-12-12--12--12-12-12-12--14--15--10-10-10--10--12--12----12---------|
E--------------------------------------------------------------------------|

X2

Ending - 3:30
G---------------------------------------------------------------------------|
D---------------------------------------------------------------------------|
A--12-12-12-12-12-12-12-12-12-12-12-12-12-12-12-12--15-15-15-15-15-15-15-15-|
E---------------------------------------------------------------------------|

---------------------------------|
---------------------------------|
---10-10-10-10-10-10-------------|
----------------------10-10-10---|

-------------------------------------------------|
-------------------------------------------------|
--12---12---12---12---12---12---12---12---12-----|
-------------------------------------------------|

..and that's it! Please rate and comment!
            
Hard to play? Try these video lessons and learn fast. | Correct




comments powered by Disqus
↑ Back to top | Tablatures and chords are parodies/interpretations of the original songs. You may use it for private study, scholarship, research or language learning purposes only