» » »

Foals, The French Open Tabs (ver.1)

Artists:  A B C D E F G H I J K L M N O P Q R S T U V W X Y Z # 

The French Open Tabs (ver.1)

Foals Tabs
 Rating:
4/5 (4 votes)
The French Open lessons Tabs too difficult? Try these video lessons and learn fast
                
Tuning: EADGBE

Intro

Guitar 1
e|--------------------------------------|
B|--------------------------------------|
G|--------------------------------------|
D|--12-12-12\10-12\10---14-14/17-17\14--|
A|--12-12-12\10-12\10---12-12/15-15\12--|
E|--------------------------------------|

Guitar 2
e|------------------------------------------------|
B|------------------------------------------------|
G|------------------------------------------------|
D|--------------------------------19-19-17-17-----|
A|--19-19-19-19-19-19-19-19-19-19-------------20--|
E|------------------------------------------------|

Verse / Chorus

Guitar 1
e|-------------------------------------------------------------------------------|
B|-------------------------------------------------------------------------------|
G|-------------------------------------------------------------------------------|
D|-----14------------------------------------------------------------------------|
A|--12---------------------------------------------------------------------------|
E|--------15---------------------------------------------------------------------|

Guitar 2
e|------------------------------------------------------------------------|
B|------------------------------------------------------------------------|
G|-----------------------------------------------17-17--------------------|
D|--------------------------------19-19-17-17-17--------------------------|
A|--19-19-19-19-19-19-19-19-19-19----------------------20-20-20-19-19-19--|
E|------------------------------------------------------------------------|

Bass
e|---------------------------------------------------------------------------------|
B|---------------------------------------------------------------------------------|
G|---------------------------------------------------------------------------------|
D|--------10-----------------------------------------------------------------------|
A|--10-12--------------------------------------------------------------------------|
E|---------------------------------------------------------------------------------|

| /  slide up
| \  slide down
| h  hammer-on
| p  pull-off
| ~  vibrato
| +  harmonic
| x  Mute note
            
Submit corrections

comments powered by Disqus
↑ Back to top | Foals Tabs for The French Open. Lyrics for acoustic guitar and electric guitar. Tablatures and chords are parodies/interpretations of the original songs. You may use it for private study, scholarship, research or language learning purposes only