>
 >
Spanish Sahara

Spanish Sahara Bass Tabs

Foals - Spanish Sahara chords, tabs, tablatures, lyrics

Guitar lessons | Add/correct | Request | Top 50 tabs Artists:  A B C D E F G H I J K L M N O P Q R S T U V W X Y Z 0-9

Spanish Sahara Bass Tabs – Foals

CD, Sheet music, Poster

Do you like Spanish Sahara? Share with your friends now
Bass TabsBass Tabs v2ChordsTabsTabs v2Tabs v3Tabs v4Ukulele

Artist - Foals
Track - Spanish Sahara
Album  Total Life Forever

Verse
G]-2-------5-------9-------5---4---|
D]---------------------------------|
A]---------------------------------|
E]-1-------5-------8-------5---3---|

Bridge
G]-2-2-2-2-2-2-2-2-5-5-5-5-5-5-5-5-9-9-9-9-9-9-9-9--|
D]---------------------------------------------------|
A]---------------------------------------------------|
E]-1-1-1-1-1-1-1-1-5-5-5-5-5-5-5-5-8-8-8-8-8-8-8-8---|

G]-5-5-5-5-4-4-4-4--|
D]-------------------|
A]-------------------|
E]-5-5-5-5-3-3-3-3---|

Chorus
G]--------------------------------------------------|
D]--------------------------------------------------|
A]--------------------------------------------------|
E]-111111111111111155555555555555558888888888888888-|

G]------------------|
D]------------------|
A]------------------|
E]-5555555533333333-|





Comments


Popular Foals tabs & chords
Cassius Bass Tabs
Miami 1 Bass Tabs
2 Trees Tabs
Brazil Is Here Tabs
Heavy Water Tabs
Heavy Water Intro Tabs
Miami Tabs
Total Life Forever Tabs
Two Steps Twice 1 Tabs
Total Life Forever Ukulele


Song lyrics



↑ Back to top | Tablatures and chords are parodies/interpretations of the original songs. You may use it for private study, scholarship, research or language learning purposes only
© 2014 AZChords.com Contact us | Privacy policy | DMCA | Add/correct tabs | Request tabs | Top 50 tabs