» » »

Foals, Spanish Sahara Bass tabs (ver.1)

Artists:  A B C D E F G H I J K L M N O P Q R S T U V W X Y Z # 

Spanish Sahara Bass tabs (ver.1)

Foals Tabs
Rating:
0/5 (0 votes)
Spanish Sahara lessons Tabs too difficult? Try these video lessons and learn fast
                
Artist - Foals
Track - Spanish Sahara
Album – Total Life Forever

Verse
G]-2-------5-------9-------5---4---|
D]---------------------------------|
A]---------------------------------|
E]-1-------5-------8-------5---3---|

Bridge
G]-—2-2-2-2-2-2-2-2-5-5-5-5-5-5-5-5-9-9-9-9-9-9-9-9--|
D]---------------------------------------------------|
A]---------------------------------------------------|
E]-1-1-1-1-1-1-1-1-5-5-5-5-5-5-5-5-8-8-8-8-8-8-8-8---|

G]—-5-5-5-5-4-4-4-4--|
D]-------------------|
A]-------------------|
E]-5-5-5-5-3-3-3-3---|

Chorus
G]--------------------------------------------------|
D]--------------------------------------------------|
A]--------------------------------------------------|
E]-111111111111111155555555555555558888888888888888-|

G]------------------|
D]------------------|
A]------------------|
E]-5555555533333333-|
            
Submit corrections

comments powered by Disqus
↑ Back to top | Foals Bass for Spanish Sahara. Lyrics for acoustic guitar and electric guitar. Tablatures and chords are parodies/interpretations of the original songs. You may use it for private study, scholarship, research or language learning purposes only