» » »

Spanish Sahara 1 Tabs

Artists:  A B C D E F G H I J K L M N O P Q R S T U V W X Y Z # 

Spanish Sahara 1 Tabs

(ver. 1)
Foals Tabs
 Rating:
4.3/5 (6 votes)
    Spanish Sahara lessons Tabs too difficult? Try these video lessons and learn fast
                GUITAR 1

e|------------------------------------------------------------------------|
B|------------------------------------------------------------------------|
G|------------------------------------------------------------------------|
D|--7~-----10~-----14~-----10~---9~---------------------------------------|
A|------------------------------------------------------------------------|
E|------------------------------------------------------------------------|

'Forget the horror here...' (1:43)
e|------------------------------------------------------------------------|
B|------------------------------------------------------------------------|
G|------------------------------------------------------------------------|
D|--7-(x16)-10-(x16)-14-(x16)-10-(x8)-9-(x8)------------------------------|
A|------------------------------------------------------------------------|
E|------------------------------------------------------------------------|

Return to:
e|------------------------------------------------------------------------|
B|------------------------------------------------------------------------|
G|------------------------------------------------------------------------|
D|--7~-----10~-----14~-----10~---9~---------------------------------------|
A|------------------------------------------------------------------------|
E|------------------------------------------------------------------------|

On the 'Forget the horror here...' part, play as before, continue until:

4:42
e|----------------------------15------------------------------------------|
B|-17-17-15-15-15----------------17---------------------------------------|
G|----------------17-17-17------------------------------------------------|
D|-------------------------17---------------------------------------------|
A|------------------------------------------------------------------------|
E|--------------------------------------------------------x2--------------|

e|------------------------------------------------------------------------|
B|-17-17-15-15-15----------15-15-15---------------------------------------|
G|----------------17-17-17------------------------------------------------|
D|------------------------------------------------------------------------|
A|------------------------------------------------------------------------|
E|------------------------------------------------------------------------|

e|------------------------------------------------------------------------|
B|------------------------------------------------------------------------|
G|-17-19-17-19-19-17-19-19-17-19-19-17------------------------------------|
D|------------------------------------------------------------------------|
A|------------------------------------------------------------------------|
E|------------------------------------------------------------------------|

Return to:
e|------------------------------------------------------------------------|
B|------------------------------------------------------------------------|
G|------------------------------------------------------------------------|
D|--7-(x16)-10-(x16)-14-(x16)-10-(x8)-9-(x8)------------------------------|
A|------------------------------------------------------------------------|
E|------------------------------------------------------------------------|


Ending (from about 5:52)
e|------------------------------------------------------------------------|
B|------------------------------------------------------------------------|
G|------------------------------------------------------------------------|
D|-7~--------7~--------7~--------7~---------------------------------------|
A|------------------------------------------------------------------------|
E|------------------------------------------------------------------------|

GUITAR 2 (rests until 'Forget the horror here...')

Build up gradually (tremolo picking) on:
e|------------------------------------------------------------------------|
B|--10-10-10-10-10-10-10-10-10-10-10-10-10-10-10-10-10--------------------|
G|------------------------------------------------------------------------|
D|------------------------------------------------------------------------|
A|------------------------------------------------------------------------|
E|------------------------------------------------------------------------|

Verse 2 (volume swells)
e|------------------------------------------------------------------------|
B|-10-10-10~-10-10-10~-10-10-10~-10-10-10~-8-8-8~-8-8-8~-5-5-5~--5-5-5~---|
G|------------------------------------------------------------------------|
D|------------------------------------------------------------------------|
A|------------------------------------------------------------------------|
E|------------------------------------------------------------------------|

4:26
e|------------------------------------------------------------------------|
B|------------------------------------------------------------------------|
G|-17-17-16-16-16---------------------------------------------------------|
D|----------------19-19-19-15-17-14---------------------------------------|
A|------------------------------------------------------------------------|
E|--------------------------------------------------------------x2--------|

e|------------------------------------------------------------------------|
B|------------------------------------------------------------------------|
G|-17-17-16-16-16----------16-16-16---------------------------------------|
D|----------------19-19-19------------------------------------------------|
A|------------------------------------------------------------------------|
E|------------------------------------------------------------------------|

e|------------------------------------------------------------------------|
B|------------------------------------------------------------------------|
G|-17-17-16-16-16--17-17-16-16-16-----------------------------------------|
D|------------------------------------------------------------------------|
A|------------------------------------------------------------------------|
E|------------------------------------------------------------------------|

e|------------------------------------------------------------------------|
B|------------------------------------------------------------------------|
G|-17-17-16-16-16---------------------------------------------------------|
D|----------------19-19-19-15-17-14---------------------------------------|
A|------------------------------------------------------------------------|
E|--------------------------------------------------------------x2--------|

e|------------------------------------------------------------------------|
B|------------------------------------------------------------------------|
G|-17-17-16-16-16----------16-16-16---------------------------------------|
D|----------------19-19-19------------------------------------------------|
A|------------------------------------------------------------------------|
E|------------------------------------------------------------------------|

e|------------------------------------------------------------------------|
B|------------------------------------------------------------------------|
G|-14-16-14-16-16-14-16-16-14-16-16-14------------------------------------|
D|------------------------------------------------------------------------|
A|------------------------------------------------------------------------|
E|------------------------------------------------------------------------|

'Leave the horror here...'

e|------------------------------------------------------------------------|
B|-------17-------17-------17-------17-------17-------17-------17-------17|
G|----14-------14-------14-------14-------14-------14-------14-------14---|
D|-17-------17-------17-------17-------17-------17-------17-------17------|
A|------------------------------------------------------------------------|
E|------------------------------------------------------------------------|

e|------------------------------------------------------------------------|
B|-------17-------17-------17-------17-------15-------15------15-------15-|
G|----14-------14-------14-------14-------14-------14------14-------14----|
D|-15-------15-------15-------15-------15-------15------15-------15-------|
A|------------------------------------------------------------------------|
E|------------------------------------------------------------------------|            
Submit corrections

↑ Back to top | Foals Tabs for Spanish Sahara. Lyrics for acoustic guitar and electric guitar. Tablatures and chords are parodies/interpretations of the original songs. You may use it for private study, scholarship, research or language learning purposes only