» » »

Flyleaf, Chasm Bass tabs (ver.1)

Artists:  A B C D E F G H I J K L M N O P Q R S T U V W X Y Z # 

Chasm Bass tabs (ver.1)

Flyleaf Tabs
Rating:
0/5 (0 votes)
Chasm lessons Tabs too difficult? Try these video lessons and learn fast
                Bass tab
Tuning: Drop D

Intro
G:|-----------------------------|-----------------------------|
D:|-----------------------------|-----------------------------| x2
A:|-----------------------------|-----------------------------|
D:|-10-9-0--12--0--10-9-0--12-0-|-10-9-0--12-7--7--9--10-9-10-| 

Verse 1
G:|------------------|
D:|------------------| x8
A:|------------------|
D:|-7---x-7-6---x-6--| 

Pre-Chorus
G:|--------------------------------|--------------------------------|
D:|---------7---------------7------|--------------------------------|
A:|-8-7-5-0-----5-7-8-7-5-0----3-4-|-5-------5-------5-------5------|
D:|--------------------------------|-----0-------0-------0-------0/-|

Chorus 1
G:|-----------------------------|-----------------------------|
D:|-----------------------------|-----------------------------| x4
A:|-----------------------------|-----------------------------|
D:|-10-9-0--12--0--10-9-0--12-0-|-10-9-0--12-7--7--9--10-9-10-| 

Verse 2
G:|------------------|
D:|------------------| x7
A:|------------------|
D:|-7---x-7-6---x-6--| 

Pre-Chorus
G:|--------------------------------|---------------------------------|
D:|---------7---------------7------|---------------------------------|
A:|-8-7-5-0-----5-7-8-7-5-0---3-4--|-5-------5-------5-------5-------|
D:|--------------------------------|-----0-------0-------0-------0/--|

Chorus 2
G:|-----------------------------|-----------------------------|
D:|-----------------------------|-----------------------------| x4
A:|-----------------------------|-----------------------------|
D:|-10-9-0--12--0--10-9-0--12-0-|-10-9-0--12-7--7--9--10-9-10-| 

Bridge

Note: During the first part of the bridge the bass isn't playing

come in at (02:04)
G:|-------------------------------------------------|
D:|-------------------------------------------------| 
A:|-8-8-8-8-8-8-8-8-8-8-8-8-------------------------|
D:|-------------------------3-3-3-3-3-3-3-3-3-3-3-3-|

G:|---------------------------------------|
D:|---------------------------------------|
A:|---------------------------------------|
D:|-5-5-5-5-5-5-5-5-5-5-5-5--10/-9/-7/-7/-|

G:|-------------------------------------|
D:|-------------------------------------|
A:|-3-4--5-------5-------5-------5------|
D:|----------0-------0-------0-------0/-|

Last Chorus/ Outro
G:|-----------------------------|-----------------------------|
D:|-----------------------------|-----------------------------| x3
A:|-----------------------------|-----------------------------|
D:|-10-9-0--12--0--10-9-0--12-0-|-10-9-0--12-7--7--9--10-9-10-| 

G:|-----------------------------|--------------------------------|
D:|-----------------------------|--------------------------------|
A:|-----------------------------|--------------------------------|
D:|-10-9-0--12--0--10-9-0--12-0-|-10-9-0--12-7--7--9--10-9-10-12-|
            

comments powered by Disqus
↑ Back to top | Flyleaf Bass for Chasm. Lyrics for acoustic guitar and electric guitar. Tablatures and chords are parodies/interpretations of the original songs. You may use it for private study, scholarship, research or language learning purposes only