» » »

Flyleaf, Chasm Tabs (ver.1)

Artists:  A B C D E F G H I J K L M N O P Q R S T U V W X Y Z # 

Chasm Tabs (ver.1)

Flyleaf Tabs
 Rating:
4/5 (4 votes)
Chasm lessons Tabs too difficult? Try these video lessons and learn fast
1
                Chasm, by Flyleaf

INTRO
   1    +  2  +   3   +   4  +   1   +   2  +  3  +  4    +
E:-----------------------------|-----------------------------|
B:-----------------------------|-----------------------------|
G:-----------------------------|-----------------------------|
D:-----------------------------|-----------------------------|
A:------0------0-------0-----0-|------0----------------------|
D:-10-9-0--12--0--10-9-0--12-0-|-10-9-0--12-7--7--9--10-9-10-| x2


VERSE 1
Guitar 1:
   1 + 2 + 3 + 4 +
E:-----------------|
B:-----------------|
G:-7-----7-7-----7-|
D:-7---x-7-6---x-6-|
A:-5---x-5-5---x-5-|
D:-----------------|x8

Guitar 2:
[4th and 8th bar only, let notes ring]
   1 + 2 + 3 + 4 +
D:----------------|
A:-3-------5------|
D:-3-------5------|


PRECHORUS
E:--------------------------------|-------------------------------|
B:--------------------------------|-------------------------------|
G:--------------------------------|-------------------------------|
D:---------7---------------7------|-------------------------------|
A:-8-7-5-0-----5-7-8-7-5-0----3-4-|-5-------5-------5-------5-----|
D:--------------------------------|-----0-------0-------0-------0-|


CHORUS 1
Guitar 1:
   1    +  2  +   3   +   4  +   1   +   2  +  3  +  4    +
E:-----------------------------|-----------------------------|
B:-----------------------------|-----------------------------|
G:-----------------------------|-----------------------------|
D:-----------------------------|-----------------------------|
A:------0------0-------0-----0-|------0----------------------|
D:-10-9-0--12--0--10-9-0--12-0-|-10-9-0--12-7--7--9--10-9-10-| x4

Guitar 2: [each |--| indicates a bar picking 16th notes throughout]
E:-10-|-5-|-5-10-|-5-|-8-|-5-|-3-10-|-3-|
B:-10-|-3-|-3-10-|-3-|-8-|-3-|-3-10-|-3-|
G:----|---|------|---|---|---|------|---|
D:----|---|------|---|---|---|------|---|
A:----|---|------|---|---|---|------|---|
D:----|---|------|---|---|---|------|---|


VERSE 2
Guitar 1:
   1 + 2 + 3 + 4 +
E:-----------------|
B:-----------------|
G:-7-----7-7-----7-|
D:-7---x-7-6---x-6-|
A:-5---x-5-5---x-5-|
D:-----------------|x7

Guitar 2:
[5th bar only, let notes ring]
   1 + 2 + 3 + 4 +
D:----------------|
A:-3-------5------|
D:-3-------5------|


PRECHORUS
E:--------------------------------|--------------------------------|
B:--------------------------------|--------------------------------|
G:--------------------------------|--------------------------------|
D:---------7---------------7------|--------------------------------|
A:-8-7-5-0-----5-7-8-7-5-0---3-4-|-5-------5-------5-------5-------|
D:--------------------------------|-----0-------0-------0-------0--|


CHORUS 2
Guitar 1:
   1    +  2  +   3   +   4  +   1   +   2  +  3  +  4    +
E:-----------------------------|-----------------------------|
B:-----------------------------|-----------------------------|
G:-----------------------------|-----------------------------|
D:-----------------------------|-----------------------------|
A:------0------0-------0-----0-|------0----------------------|
D:-10-9-0--12--0--10-9-0--12-0-|-10-9-0--12-7--7--9--10-9-10-| x4

Guitar 2: [each |--| indicates a bar picking 16th notes throughout]
E:-10-|-5-|-5-10-|-5-|-8-|-5-|-3-10-|-3-10-|
B:-10-|-3-|-3-10-|-3-|-8-|-3-|-3-10-|-3-10-|
G:----|---|------|---|---|---|------|------|
D:----|---|------|---|---|---|------|------|
A:----|---|------|---|---|---|------|------|
D:----|---|------|---|---|---|------|------|


BRIDGE
Guitar 1
E:--------------------------------|
B:--------------------------------|
G:--------------------------------|
D:---------7---------------7------|
A:-8-7-5-0-----5-7-8-7-5-0----5-7-|
D:--------------------------------|x6

E:--------------------------------|-------------------------------|
B:--------------------------------|-------------------------------|
G:--------------------------------|-------------------------------|
D:---------7---------------7------|-------------------------------|
A:-8-7-5-0-----5-7-8-7-5-0----3-4-|-5-------5-------5-------5-----|
D:--------------------------------|-----0-------0-------0-------0-|


Guitar 2:
   1 + 2 + 3 + 4 +  1 + 2 + 3 + 4 +
E:-10-/13--10-/15-|-10-/13--10-/8--|
B:----------------|----------------|
G:----------------|----------------|
D:----------------|----------------|
A:----------------|----------------|
D:----------------|----------------|x2

   1 + 2 + 3 + 4 +  1 + 2 + 3 + 4 +  1 + 2 + 3 + 4 +  1 2 3 4
E:-5---7---5---7--|-5---13--5---7--|-5---7---5---7--|-10----------|
B:----------------|----------------|----------------|-------------|
G:----------------|----------------|----------------|-------------|
D:----------------|----------------|----------------|-------------|
A:----------------|----------------|----------------|-------------|
D:----------------|----------------|----------------|-------------|


LAST CHORUS
Guitar 1:
   1    +  2  +   3   +   4  +   1   +   2  +  3  +  4    +
E:-----------------------------|-----------------------------|
B:-----------------------------|-----------------------------|
G:-----------------------------|-----------------------------|
D:-----------------------------|-----------------------------|
A:------0------0-------0-----0-|------0----------------------|
D:-10-9-0--12--0--10-9-0--12-0-|-10-9-0--12-7--7--9--10-9-10-| x3

   1    +  2  +   3   +   4  +   1   +   2  +  3  +  4    +
E:-----------------------------|--------------------------------|
B:-----------------------------|--------------------------------|
G:-----------------------------|--------------------------------|
D:-----------------------------|--------------------------------|
A:------0------0-------0-----0-|------0-------------------------|
D:-10-9-0--12--0--10-9-0--12-0-|-10-9-0--12-7--7--9--10-9-10-12-|

Guitar 2: [each |--| indicates a bar picking 16th notes throughout]
E:-10-|-5-|-5-10-|-5-10-|-8-|-5-|-3-10-|-3-|
B:-10-|-3-|-3-10-|-3-10-|-8-|-3-|-3-10-|-3-|
G:----|---|------|------|---|---|------|---|
D:----|---|------|------|---|---|------|---|
A:----|---|------|------|---|---|------|---|
D:----|---|------|------|---|---|------|---|
            
Submit corrections

comments powered by Disqus
↑ Back to top | Flyleaf Tabs for Chasm. Lyrics for acoustic guitar and electric guitar. 1 Tablatures and chords are parodies/interpretations of the original songs. You may use it for private study, scholarship, research or language learning purposes only