» » »

Breathe Today Bass tabs (ver.1)

Artists:  A B C D E F G H I J K L M N O P Q R S T U V W X Y Z # 

Breathe Today Bass tabs (ver.1)

Flyleaf
Rating:
0/5 (0 votes)

Hard to play? Try these video lessons and learn fast.
                

This is my first tab but im pretty sure everything is right. It is really close to the 
its fun to play. Enjoy =]

Tuning:Drop D

    Verse 1
G|--------------------------------------------------------------|
D|--------------------------------------------------------------|
A|-----------22--22--22------------22-22-22---------------------|
D| -575-454---------------575-454------------575-454------------|
    0:09

    Pre-Chorus
G|--------------------------------------------------------------|
D|--------------------------------------------------------------|
A|--------------------------------------------------------------|
D|-55555555444444445555555544444444-----------------------------|
   0:21

   Chorus
G|--------------------------------------------------------------|
D|--------------------------------------------------------------|
A|-2222------0000-------2222------0000--------------------------|
D|------5555------4422-------5555-------4422--------------------|
   0:31

    Verse 2
G|--------------------------------------------------------------|
D|--------------------------------------------------------------|
A|-----------22-22-22---------22-22-22--------------------------|
D|-/575-454-----------575 454-----------/575 454----------------|
    0:45

   Pre-Chorus
G|--------------------------------------------------------------|
D|--------------------------------------------------------------|
A|--------------------------------------------------------------|
D|-55555555444444442222555544444444-----------------------------|
   0:58

   Chorus
G|---------------------------------------------------------------|
D|---------------------------------------------------------------|
A|-2222------0000------2222------0000----------------------------|
D|------5555------4422------5555------4422-----------------------|
   1:08
G|---------------------------------------------------------------|
D|---------------------------------------------------------------|
A|-2222------0000------2222------0000----------------------------|
D|------5555------4422------5555------4--------------------------|

   Bridge
G|---------------------------------------------------------------|
D|---------------------------------------------------------------|
A|-----------------------------------------2222------0000--------|
D|-2222555544444444-2222555544444444---------5555------4422------|
  1:29
G|---------------------------------------------------------------|
D|---------------------------------------------------------------|
A|---------------------------------------------------------------|
D|-22--22-55-55--44--44-44-44--22--22-55-55--44-44-444-----------|
    1:45

   Chorus
G|---------------------------------------------------------------|
D|---------------------------------------------------------------|
A|-2222-------0000-------2222-------0000-------------------------|
D|-------5555-------4422-------5555-------4----------------------|
   1:56
G|---------------------------------------------------------------|
D|---------------------------------------------------------------|
A|-2222-------0000-------2222-------0000-------------------------|
D|-------5555-------4422-------5555-------4422-------------------|

G|----------------------------------------------------------------|
D|----------------------------------------------------------------|
A|-2222-------0000-------2222-------0000--------------------------|
D|-------5555-------4422-------5555-------4-----------------------|


| /  slide up
| \  slide down
| h  hammer-on
| p  pull-off
| ~  vibrato
| +  harmonic
| x  Mute note
            
Hard to play? Try these video lessons and learn fast. | Correct




comments powered by Disqus
↑ Back to top | Tablatures and chords are parodies/interpretations of the original songs. You may use it for private study, scholarship, research or language learning purposes only