» » »

Flyleaf, Breathe Today Tabs (ver.2)

Artists:  A B C D E F G H I J K L M N O P Q R S T U V W X Y Z # 

Breathe Today Tabs (ver.2)

Flyleaf Tabs
 Rating:
4/5 (13 votes)
Breathe Today lessons Tabs too difficult? Try these video lessons and learn fast
1
                -----------------------------------------------------------------------
			     BREATHE TODAY - Flyleaf
-----------------------------------------------------------------------

a good and easy song
for the last couple choruses repeat the solo in the background


Tuning: dropD(DADGBe)

Intro part 1 x1

e|--------------------------------------------------------------------|
B|--------------------------------------------------------------------|
G|--------------------------------------------------------------------|
D|--------------------------------------------------------------------|
A|-99-----99-----99-----7-9-5--5-7-4-----99-----99-----99-------------|
E|-99-----99-----99-----7-9-5--5-7-4-----99-----99-----99-------------|

	Other guitars come in
	e|--------------
	B|--------------
	G|--------------
	D|--------------
	A|-7-9-5--5-7-4-
	E|-7-9-5--5-7-4-
Part 2/verse x2

e|--------------------------------------------------------------------|
B|--------------------------------------------------------------------|
G|--------------------------------------------------------------------|
D|--------------------------------------------------------------------|
A|-99--99999-99--99999-99--99999-7-9-5--5-7-4-------------------------|
E|-99--99999—99--99999-99--99999-7-9-5--5-7-4-------------------------|
       +++++     +++++     +++++
Bridge x1

e|--------------------------------------------------------------------|
B|--------------------------------------------------------------------|
G|--------------------------------------------------------------------|
D|--------------------------------------------------------------------|
A|-55555555-44444444-55555555-44444444--------------------------------|
E|-55555555-44444444-55555555-44444444--------------------------------|
Chorus x2

e|--------------------------------------------------------------------|
B|--------------------------------------------------------------------|
G|--------------------------------------------------------------------|
D|--------------------------------------------------------------------|
A|9999-5555-7777-5--4-------------------------------------------------|
E|9999-5555-7777-5--4-------------------------------------------------|

Verse x2

e|--------------------------------------------------------------------|
B|--------------------------------------------------------------------|
G|--------------------------------------------------------------------|
D|--------------------------------------------------------------------|
A|-99--99999-99--99999-99--99999-7-9-5--5-7-4-------------------------|
E|-99--99999—99--99999-99--99999-7-9-5--5-7-4-------------------------|
       +++++     +++++     +++++
Bridge x1(slightly different than first bridge)

e|--------------------------------------------------------------------|
B|--------------------------------------------------------------------|
G|--------------------------------------------------------------------|
D|--------------------------------------------------------------------|
A|-55555555-44444444-2222-5555-44444444-------------------------------|
E|-55555555-44444444-2222-5555-44444444-------------------------------|

Chorus x1

e|--------------------------------------------------------------------|
B|--------------------------------------------------------------------|
G|--------------------------------------------------------------------|
D|--------------------------------------------------------------------|
A|9999-5555-7777-5-4--------------------------------------------------|
E|9999-5555-7777-5-4--------------------------------------------------|

Chorus x1

e|--------------------------------------------------------------------|
B|--------------------------------------------------------------------|
G|--------------------------------------------------------------------|
D|--------------------------------------------------------------------|
A|9999-5555-7777-5\---------------------------------------------------|
E|9999-5555-7777-5\---------------------------------------------------|

Solo

e|--------------------------------------------------------------------|
B|--------------------------------------------------------------------|
G|--------------------------------------------------------------------|
D|-12-12h13p12—12-12h13p12h13-15b-------------------------------------|
A|--------------------------------------------------------------------|
E|--------------------------------------------------------------------|
                               

e|--------------------------------------------------------------------|
B|------------------9-9h10p9h10-12b-----------------------------------|
G|--------------------------------------------------------------------|
D|-12-12h13p12--------------------------------------------------------|
A|--------------------------------------------------------------------|
E|--------------------------------------------------------------------|
                                 
Interlude part 1

e|--------------------------------------------------------------------|
B|--------------------------------------------------------------------|
G|--------------------------------------------------------------------|
D|--------------------------------------------------------------------|
A|9999-5555-7777-5-4--------------------------------------------------|
E|9999-5555-7777-5-4--------------------------------------------------|


Interlude part 2 x2
e|--------------------------------------------------------------------|
B|--------------------------------------------------------------------|
G|--------------------------------------------------------------------|
D|--------------------------------------------------------------------|
A|--22--22-44-55-44--44-44-44-----------------------------------------|
E|--22--22-44-55-44--44-44-44-----------------------------------------|

Chorus x1

e|--------------------------------------------------------------------|
B|--------------------------------------------------------------------|
G|--------------------------------------------------------------------|
D|--------------------------------------------------------------------|
A|9999-5555-7777-5-4--------------------------------------------------|
E|9999-5555-7777-5-4--------------------------------------------------|


Chorus x1

e|--------------------------------------------------------------------|
B|--------------------------------------------------------------------|
G|--------------------------------------------------------------------|
D|--------------------------------------------------------------------|
A|9999-5555-7777-5\---------------------------------------------------|
E|9999-5555-7777-5\---------------------------------------------------|

Chorus x3

e|--------------------------------------------------------------------|
B|--------------------------------------------------------------------|
G|--------------------------------------------------------------------|
D|--------------------------------------------------------------------|
A|9999-5555-7777-5-4--------------------------------------------------|
E|9999-5555-7777-5-4--------------------------------------------------|

Outro x1

e|--------------------------------------------------------------------|
B|--------------------------------------------------------------------|
G|--------------------------------------------------------------------|
D|--------------------------------------------------------------------|
A|9999-5555-7777-5\---------------------------------------------------|
E|9999-5555-7777-5\---------------------------------------------------|





| /  slide up
| \  slide down
| h  hammer-on
| p  pull-off
| ~  vibrato
| +  harmonic
| x  Mute note
| b  Bend
=======================================================================
            
Submit corrections

comments powered by Disqus
↑ Back to top | Flyleaf Tabs for Breathe Today. Lyrics for acoustic guitar and electric guitar. 1 Tablatures and chords are parodies/interpretations of the original songs. You may use it for private study, scholarship, research or language learning purposes only