» » »

Stand Up Tabs (ver.1)

Artists:  A B C D E F G H I J K L M N O P Q R S T U V W X Y Z # 

Stand Up Tabs (ver.1)

Flobots
Rating:
0/5 (0 votes)

Hard to play? Try these video lessons and learn fast.
                   Am    Gm     Am     Gm     Am      Gm
E----------------------------------------------|
B----------------------------------------------|
G----------------------------------------------| I used bar chords here because
D----------------------------------------------| personally I think it sounds
A----------------------------------------------| much better.
E--5------3------5------3------5------3--------|

E----------------------------------------------|
B-1-0---0--------------------------------------|
G-----2---2---2-0---0--------------------------|
D-----------------2---2-0---0-2-0--------------|
A-------------------------3--------------------|
E----------------------------------------------|
At the end of the song slow down a bit then end on an Am chord.


So that's it. Just keep repeating this over and over.
P.S. My first TAB ever. Hope you enjoyed it.
            
Hard to play? Try these video lessons and learn fast. | Correct




comments powered by Disqus
↑ Back to top | Tablatures and chords are parodies/interpretations of the original songs. You may use it for private study, scholarship, research or language learning purposes only