» » »

Stand Up Bass tabs (ver.1)

Artists:  A B C D E F G H I J K L M N O P Q R S T U V W X Y Z # 

Stand Up Bass tabs (ver.1)

Flobots
Rating:
5/5 (1 vote)

Hard to play? Try these video lessons and learn fast.
                -------------------------------------------------------------------------------
			     SONG NAME - Band Name
-------------------------------------------------------------------------------


Tuning:EADG
RIFF A
G|------------------------------------------------------|
D|------------------------------------------------------|
A|-------------3----------5----------3------------------|
E|---3-5~---------5~----------5~---------5~-------------|
Riff B
G|-------------------|
D|-------------------|
A|------3----5-----3-|
E|-3-5~---4~---5~----|
Riff C
G|-----------------|
D|-----------------|
A|------3h5-5------|
E|--5~---------3---|
Rest until 2:26
Riff A X1
Riff B X2
Riff A X1
Riff B X1
Riff C X12 Hold the last note
| /  slide up
| \  slide down
| h  hammer-on
| p  pull-off
| ~  vibrato
| +  harmonic
| x  Mute note
===============================================================================
            
Hard to play? Try these video lessons and learn fast. | Correct




comments powered by Disqus
↑ Back to top | Tablatures and chords are parodies/interpretations of the original songs. You may use it for private study, scholarship, research or language learning purposes only