» » »

Combat Bass tabs (ver.2)

Artists:  A B C D E F G H I J K L M N O P Q R S T U V W X Y Z # 

Combat Bass tabs (ver.2)

Flobots
Rating:
4/5 (3 votes)

Hard to play? Try these video lessons and learn fast.
                -------------------------------------------------------------------------------
			     Combat - Flobots
-------------------------------------------------------------------------------


Tuning: standard

ATTENTION: I have also posted a guitar pro version of this
LISTEN: to song for rhythms and pop/slap --> also, the bassist doesn't always play same 
at end, so improvise a bit, but it's with those notes, just change the rhythms, attack 
such.

Riff 1:

G|--------------------------| x 28
D|--------------------------|
A|---------7---7------------|
E|-----0-0---0---07-10------|

Riff 2

G|---------------------------------------|
D|---------------------------------------|
A|---------------------------------------|
E|--0--------0---------0--------0-0-0----|

Riff 3(A) (pop 'n slap)        Riff 3 (B)

G|-----------------  x3    ---------------------------|
D|-----------------        ---------------------------|
A|-------7--7--7---        -----7-7-7---7-------------|
E|---------------7-        -----------7---x-5-3-0-----|

End Riff (pop 'n slap)

G|------------------------------|
D|------------------------------|
A|----7----5h7 ---7--------5h7--|
E|------xx------0---0h5h7-------|

ORDER:

Riff 1   x 28 (00:16)
Riff 2   x 1
Riff 3A  x 3
Riff 3B  x 1
Riff 2   x 1
Riff 3B  x 2
End Riff x 3

End of song: (3 open e's)

| /  slide up
| \  slide down
| h  hammer-on
| p  pull-off
| ~  vibrato
| +  harmonic
| x  Mute note
===============================================================================
            
Hard to play? Try these video lessons and learn fast. | Correct




comments powered by Disqus
↑ Back to top | Tablatures and chords are parodies/interpretations of the original songs. You may use it for private study, scholarship, research or language learning purposes only