» » »

Combat Bass tabs (ver.1)

Artists:  A B C D E F G H I J K L M N O P Q R S T U V W X Y Z # 

Combat Bass tabs (ver.1)

Flobots
Rating:
3/5 (2 votes)

Hard to play? Try these video lessons and learn fast.
                
Not 100% correct but it's close and how I play it.
[Made some edits and added the slap/pop pattern at one of the last bits that was 
the hardest to figure out.]

S=slap
p=pop


G|-------9-9---7----| x 28
D|-----------9------|
A|-----77-7-7-------|
E|------------------|


G|-----------------------------|
D|-----------------------------|
A|-----------------------------|
E|--0------0------0------0-0-0-|
                                       

G|---9-9-7---------9-9-7---------9-9-7-----|-----9-9-7----7-------------|
D|--------h9------------h9------------h9---|----------h9----0h7-5-------|
A|-----------------------------------------|----------------------------|
E|-----------------------------------------|-------------x-x---x-0------|

G|-----------------------------|
D|-----------------------------|
A|-----------------------------|
E|--0------0------0------------|

                              (p p p  SpS p  SpS)
G|---9-9-7---7-------------|---9-9-7---7----------|
D|--------h9---0h7-5-------|--------h9--0-0h7-5---|    
A|-------------------------|----------------------|
E|----------x-x---x--0-----|----------x------x-0--|

End Riff:    
G|---------7h9-x-7-7h9----------|
D|------------------------------|
A|------------------------------|
E|------00----x-x-x-------------|
            
Hard to play? Try these video lessons and learn fast. | Correct




comments powered by Disqus
↑ Back to top | Tablatures and chords are parodies/interpretations of the original songs. You may use it for private study, scholarship, research or language learning purposes only