>
 >
Dreams 3

Dreams 3 Bass Tabs

Fleetwood Mac - Dreams 3 chords, tabs, tablatures, lyrics

Guitar lessons | Add/correct | Request | Top 50 tabs Artists:  A B C D E F G H I J K L M N O P Q R S T U V W X Y Z 0-9

Dreams 3 Bass Tabs – Fleetwood Mac

CD, Sheet music, Poster

Do you like Dreams 3? Share with your friends now
Bass TabsBass Tabs v2Bass Tabs v3ChordsChords v2Chords v3Chords v4TabsTabs v2Tabs v3Ukulele
FLEETWOOD MAC - "Dreams" - Bass Tab

Time(4/4)
Standard Tuning(EADG)

Main Riff:
|-----------------|----------------|
|*----------------|---------------*|
|*----------------|---------------*| 
|--1-r--1-1---r-1-|-3-r--3-3--r-5--|
   1 2  & 3   4 &   1 2  & 3  4 &

Variation:
|-----------------|-----------------|
|*----------------|----------------*|
|*----------------|----------0-----*| 
|--1-r--1-1---r-1-|-3-r--3-3---3-0--|
   1 2  & 3   4 &   1 2  & 3 & 4 &

RIFF AFTER 1ST CHORUS:
       |------------|---------|-----------|-------------|---------|
       |------------|-5------5|----------3|---------5/7-|--------5|
       |------------|---------|------3-5--|-------------|-0-------|
       |-1-r-1-1-r-1|---------|-----------|-------------|---------|
"You'll Know"         1      &       & 4 &          4     1      &

       |----------|-----------|-----------|
       |---------5|------7-5-3|-----------|
       |-----3-5--|-----------|-------0-3-|
       |----------|-----------|-----------|  >Back to Main Riff
             & 4 &       & 4 &        4 &


The timing for the riff after chorus is a bit tricky. Hope you find this Ok, let 
me kmow any comments.

By Stuart Broughton





Comments


Popular Fleetwood Mac tabs & chords
Go Your Own Way 5 Bass Tabs
Dont Stop Thinking About Tomorrow 1 Chords
Peacekeeper Chords
You Make Loving Fun 1 Chords
You Make Loving Fun 2 Chords
Gypsy Tabs
I Loved Another Woman Tabs
Isn't It Midnight Tabs
Gold Dust Woman 2 Ukulele
Monday Morning Ukulele


Song lyrics



↑ Back to top | Tablatures and chords are parodies/interpretations of the original songs. You may use it for private study, scholarship, research or language learning purposes only
© 2014 AZChords.com Contact us | Privacy policy | DMCA | Add/correct tabs | Request tabs | Top 50 tabs