» » »

Fleetwood Mac, Dreams Tabs (ver.2)

Artists:  A B C D E F G H I J K L M N O P Q R S T U V W X Y Z # 

Dreams Tabs (ver.2)

Fleetwood Mac Tabs
Rating:
5/5 (2 votes)
Dreams lessons Tabs too difficult? Try these video lessons and learn fast
                (Live)


Standard tuning and a slight delay/echo effect.  If you are playing the old version,
use a volume pedal.  Listen to the record to get the strumming correct during the choruses.

-----5v-----------------------------------------------------------------------|
----------------3b3-1--------------3------------------------------------------|
-----------------------0h2v--------2b2--0---------------0---------------------|
------------------------------------------0h2v------0h2----0h2----------------|
---------------------------------------------------------------0--------------|
------------------------------------------------------------------0-----------|
 This comes before the 1st verse     Hit the last   open note very softly.

------------------------------------------------------------------------------|
--------------------------3---------------------------------------------------|
--------------------------2b2--0----------------------------------------------|
---------------------------------0h2v-----------------------------------------|
------------------------------------------------------------------------------|
------------------------------------------------------------------------------|
 you want your freedom...

------------------------------------------------------------------------------|
------------------------------------------------------------------------------|
-----------------------------------------0------------------------------------|
-------------------------------------0h2----2b-0------------------------------|
--------------------------------------------------3-0-------------------------|
-------------------------------------------------------0----------------------|
 who am I to keep you down, down...

------------------------------0-----------------------------------------------|
--------------------------------0---------------------------------------------|
----------------------------------2v------------------------------------------|
------------------------------------------------------------------------------|
------------------------------------------------------------------------------|
------------------------------------------------------------------------------|
 the way that you feel it...

--------------------------0------------------------------------------0--------|
-------------------------------------6----------8---------6-------------------|
-----------------------2----2------4---4------5---5-----4---4------2---2------|
---------------------3-----------5----------7---------5----------3------------|
------------------------------------------------------------------------------|
------------------------------------------------------------------------------|
 like a heartbeat...

------------------------------------------------------------------------------|
------6-----------8-----------6----------8----------6-----------8-----8-------|
---4----4-------5---5-------4---4------5---5------4---4-------5---5-----------|
-5------------7-----------5----------7----------5-----------7-------7---------|
------------------------------------------------------------------------------|
------------------------------------------------------------------------------|
      and what you lost...

-----------------0-0------------------------------------0-0--0-0-0-0----------|
-----6-----6-----1-1------------------------------------1-1--1-0-0-1----------|
---4---4---------2-2------------------------------------2-2--2-0-0-2----------|
-5-------5-------3-3------------------------------------3-3--3-3-3-3----------|
-----------------3-3------------------------------------3-3--3-3-3-3----------|
------------------------------------------------------------------------------|
                 thunder only happens when it's raining...

------------------------0----0-0-0--0--0--0-----------0-0---------------------|
------------------------1----1-0-0--0--0--1-----------1-0---------------------|
------------------------2----2-0-0--0--0--2-----------2-0---------------------|
------------------------3----3-3-3--3--3--3-----------3-3---------------------|
------------------------3----3-3-3--3--3--3-----------3-3---------------------|
------------------------------------------------------------------------------|
 when they're playing...             they say women they will come and...

------------------0-----------0-----0-0--0-0-0--0--------0--0---0-0--0--------|
-----------------1---0--------1-----1-0--0-0-0--1--------1--0---0-0--0--------|
----------------2------0---0--2-----2-0--0-0-0--2--------2--0---0-0--0--------|
-------------------------3----3-----3-3--3-3-3--3--------3--3---3-3--3--------|
------------------------------3-----3-3--3-3-3--3--------3--3---3-3--3--------|
------------------------------------------------------------------------------|
 they will go...                                when the rain washes you

----------------------0--0----------------------------------------------------|
----------------------1--0----------------------------------------------------|
----------------------2--0----------------------------------------------------|
----------------------3--3----------------------------------------------------|
----------------------3--3----------------------------------------------------|
------------------------------------------------------------------------------|
 clean you'll know....

-------------------8v----5-----5-------5--------------8v----5---5---5---------|
----------------------------8------------8--------------------8---8-----------|
---------------------------------7v--------7--5-----------------------7v------|
------------------------------------------------7v----------------------------|
------------------------------------------------------------------------------|
------------------------------------------------------------------------------|
 you will know...

-5--------------5-------------------------------------------------------------|
---8--------------8-----------------------------------------------------------|
-----7--5-----------5---------------------------------------------------------|
----------7v----------7v------------------------------------------------------|
------------------------------------------------------------------------------|
------------------------------------------------------------------------------|
 Repeat all of the above except the solo for the next two verses...

-----15v---17\0---0-0---------------------------------------------------------|
------------------1-1---------------------------------------------------------|
------------------2-2---------------------------------------------------------|
------------------3-3---------------------------------------------------------|
------------------3-3---------------------------------------------------------|
------------------------------------------------------------------------------|
 Play this at the end of the 2nd chorus

-0--0-0-0--0-0--------------0----------------------------------0--------------|
-1--1-1-1--0-0----------------1---0--------------------------0---0------------|
-2--2-2-2--0-0------------------2---0---0------------------2-------2----------|
-3--3-3-3--3-3------------------------3------------------3------------3-------|
-3--3-3-3--3-3----------------------------------------------------------------|
------------------------------------------------------------------------------|
 you'll know...    you'll know...      you will know...              ...END
            
Submit corrections

comments powered by Disqus
↑ Back to top | Fleetwood Mac Tabs for Dreams. Lyrics for acoustic guitar and electric guitar. Tablatures and chords are parodies/interpretations of the original songs. You may use it for private study, scholarship, research or language learning purposes only