» » »

Five Finger Death Punch, Never Enough Tabs (ver.3)

Artists:  A B C D E F G H I J K L M N O P Q R S T U V W X Y Z # 

Never Enough Tabs (ver.3)

Five Finger Death Punch Tabs
 Rating:
4/5 (4 votes)
Never Enough lessons Tabs too difficult? Try these video lessons and learn fast
                Tuning: Drop B

Intro
|-----------------------------|
|-----------------------------|
|-----------------------------|
|-----------------------------|
|--0----0-0---0-0--4-0-302035-|
|-0-0--0-0---0-0---4-0-302035-|
  ..   ...   ...       ......

Verse
|-----------------------------------------|
|-----------------------------------------|
|-----------------------------------------|
|-----------------------------------------|
|--0----0-0---0-0--4-0-302035-8~----5~----|
|-0-0--0-0---0-0---4-0-302035-8~----5~----|
  ..   ...   ...       ......

Pre Chorus
|-----------------------------|
|-----------------------------|
|-----------------------------|
|-----------------------------|
|--0----0-0---0-0--4-0-302035-|
|-0-0--0-0---0-0---4-0-302035-|
  ..   ...   ...       ......

After 3x of Pre Chorus Play This
|---------------------|
|---------------------|
|---------------------|
|---------------------|
|-8~--------5~--------|
|-8~--------5~--------|

Chorus
|-----------------------------------------------|
|-----------------------------------------------|
|-----------------------------------------------|
|-----------------------------------------------|
|-3-2-5-0--0~--3-2-5-0--0~--8~--------5~--------|
|-3-2-5-0--0~--3-2-5-0--0~--8~--------5~--------|

Interlude 1
|-----------------------|
|-----------------------|
|-----------------------|
|-----------------------|
|--0-------------2-3-5v-|
|-0-0--0-0-2-3-5--------|
  ...  . . . . . . .

End With
|------------|
|------------|
|------------|
|------------|
|--0-0---0-0-|
|-0-0---0-0--|
  ....  ....

Interlude 2 (In the end...)
|----------------------------------------------3----|
|-------------------6-----------------------------3-|
|------5-7-5-7--5-7----7-5-7------5-7-5-7--5-7------|
|---------------------------------------------------|
|-0--0-----------------------0--0-------------------|
|-0--0-----------------------0--0-------------------|
  .  .                       .  .

|------------------------------------------------------|
|-------------------6--------------------------6-------|
|------5-7-5-7--5-7----7-5-7------5-7-5-7--5-7----7-5--|
|------------------------------------------------------|
|-8--8-----------------------5--5----------------------|
|-8--8-----------------------5--5----------------------|
  .  .                       .  .

Bridge (not exact timing) the hammer on to slide comes out of nowhere you tap on to the 
then slide to 8 then play the 8
|-----------------------------------------------------------------|
|-----------------------------------------------------------------|
|-----------------------------------------------------------------|
|-------h5/8--7------7------------------h5/8--7------7------------|
|-0--0-----------10-----10--8--7--0--0-----------10-----10--8--7--|
|-0--0----------------------------0--0----------------------------|

|-------------------------------------------------------|
|-------------------------------------------------------|
|-------------------------------------------------------|
|-------------------------------------------------------|
|-8--8--h5/8--7--5--7--5-----7--5--5--------------------|
|-8--8--------------------8-----5--5--8--7--5--7--5--3--|
            
Submit corrections

comments powered by Disqus
↑ Back to top | Five Finger Death Punch Tabs for Never Enough. Lyrics for acoustic guitar and electric guitar. Tablatures and chords are parodies/interpretations of the original songs. You may use it for private study, scholarship, research or language learning purposes only