» » »

Five Finger Death Punch, Never Enough Bass tabs (ver.1)

Artists:  A B C D E F G H I J K L M N O P Q R S T U V W X Y Z # 

Never Enough Bass tabs (ver.1)

Five Finger Death Punch Tabs
 Rating:
4/5 (4 votes)
Never Enough lessons Tabs too difficult? Try these video lessons and learn fast
1
                			     SONG NAME - Band Name


Tuning: 5 String Standard

Intro x4
   e  e   ss s e   ss s e   se sssssss
G|--------------------------------------------------------------------|
D|--------------------------------------------------------------------|
A|--------------------------------------------------------------------|
E|--------------------------------------------------------------------|
B|-0--0---00-0-0---00-0-0---00-5305030--------------------------------|


Verse 1 x2
   e  e   ss s e   ss s e   se sssssss  q f           q f
G|---------------------------------------------------------------------|
D|---------------------------------------------------------------------|
A|---------------------------------------------------------------------|
E|--------------------------------------3-3~~~~~~~~~~~0-0~~~~~~~~~~~~~-|
B|-0--0---00-0-0---00-0-0---00-5305030---------------------------------|


Pre-Chorus Part 1 x3
   e  e   ss s e   ss s e   se sssssss
G|--------------------------------------------------------------------|
D|--------------------------------------------------------------------|
A|--------------------------------------------------------------------|
E|--------------------------------------------------------------------|
B|-0--0---00-0-0---00-0-0---00-5305030--------------------------------|


Pre-Chorus Part 2 x1
   q f          q f
G|--------------------------------------------------------------------|
D|--------------------------------------------------------------------|
A|--------------------------------------------------------------------|
E|-3-3~~~~~~~~~~0-0~~~~~~~~~~-----------------------------------------|
B|--------------------------------------------------------------------|


Chorus x2
   e e e e e  e   e e e e e  e    q f          q f
G|--------------------------------------------------------------------|
D|--------------------------------------------------------------------|
A|--------------------------------------------------------------------|
E|--------------------------------3-3~~~~~~~~~~0-0~~~~~~~~~~----------|
B|-0-3-2-0-0--0---0-3-2-0-0--0----------------------------------------|


Intro (played again) x2

   e  e   ss s e   ss s e   se sssssss
G|--------------------------------------------------------------------|
D|--------------------------------------------------------------------|
A|--------------------------------------------------------------------|
E|--------------------------------------------------------------------|
B|-0--0---00-0-0---00-0-0---00-5305030--------------------------------|


Verse 2 x2

   e  e   ss s e   ss s e   se sssssss  q f           q f
G|---------------------------------------------------------------------|
D|---------------------------------------------------------------------|
A|---------------------------------------------------------------------|
E|--------------------------------------3-3~~~~~~~~~~~0-0~~~~~~~~~~~~~-|
B|-0--0---00-0-0---00-0-0---00-5305030---------------------------------|


Pre-Chorus Part 1 x3
   e  e   ss s e   ss s e   se sssssss
G|--------------------------------------------------------------------|
D|--------------------------------------------------------------------|
A|--------------------------------------------------------------------|
E|--------------------------------------------------------------------|
B|-0--0---00-0-0---00-0-0---00-5305030--------------------------------|


Pre-Chorus Part 2 x1
   q f          q f
G|--------------------------------------------------------------------|
D|--------------------------------------------------------------------|
A|--------------------------------------------------------------------|
E|-3-3~~~~~~~~~~0-0~~~~~~~~~~-----------------------------------------|
B|--------------------------------------------------------------------|


Chorus x2
   e e e e e  e   e e e e e  e    q f          q f
G|--------------------------------------------------------------------|
D|--------------------------------------------------------------------|
A|--------------------------------------------------------------------|
E|--------------------------------3-3~~~~~~~~~~0-0~~~~~~~~~~----------|
B|-0-3-2-0-0--0---0-3-2-0-0--0----------------------------------------|


Note-OMG the bridge is so easy, you can learn it by ear! Sound fun?
     Good!

| s  sixteenth note
| e  eighth note
| q  quarter note
| f  finish bar
| /  slide up
| \  slide down
| h  hammer-on
| p  pull-off
| ~  let ring
| +  harmonic
| x  Mute note
            
Submit corrections

comments powered by Disqus
↑ Back to top | Five Finger Death Punch Bass for Never Enough. Lyrics for acoustic guitar and electric guitar. 1 Tablatures and chords are parodies/interpretations of the original songs. You may use it for private study, scholarship, research or language learning purposes only