» » »

Five Finger Death Punch, Never Enough Tabs (ver.1)

Artists:  A B C D E F G H I J K L M N O P Q R S T U V W X Y Z # 

Never Enough Tabs (ver.1)

Five Finger Death Punch Tabs
 Rating:
4/5 (4 votes)
Never Enough lessons Tabs too difficult? Try these video lessons and learn fast
1
                
Tuning: Drop B ( B Gb B E Ab C# )

Intro ( 4x ): 
					
|---------------------------------------------------------------------------|
|---------------------------------------------------------------------------|
|---------------------------------------------------------------------------|
|-0-0--0-0-0--0-0-0--0-5-3-2-3-3-2-2----------------------------------------|
|-0-0--0-0-0--0-0-0--0-5-3-2-3-3-2-2----------------------------------------|
|-0-0--0-0-0--0-0-0--0-5-3-2-3-3-2-2----------------------------------------|

Verse:
						( 2x )
|---------------------------------------------------------------------------|
|---------------------------------------------------------------------------|
|--------------------------------------3-3----------------------------------|
|-0-0--0-0-0--0-0-0--0-5-3-2-3-3-2-2---3-3--5-5-----------------------------|
|-0-0--0-0-0--0-0-0--0-5-3-2-3-3-2-2---1-1--5-5-----------------------------|
|-0-0--0-0-0--0-0-0--0-5-3-2-3-3-2-2--------5-5-----------------------------|

					( 2x )
|---------------------------------------------------------------------------|
|---------------------------------------------------------------------------|
|---------------------------------------------------------------------------|
|-0-0--0-0-0--0-0-0--0-5-3-2-3-3-2-2----------------------------------------|
|-0-0--0-0-0--0-0-0--0-5-3-2-3-3-2-2----------------------------------------|
|-0-0--0-0-0--0-0-0--0-5-3-2-3-3-2-2----------------------------------------|

|---------------------------------------------------------------------------|
|---------------------------------------------------------------------------|
|--------------------------------------3-3----------------------------------|
|-0-0--0-0-0--0-0-0--0-5-3-2-3-3-2-2---3-3--5-5-----------------------------|
|-0-0--0-0-0--0-0-0--0-5-3-2-3-3-2-2---1-1--5-5-----------------------------|
|-0-0--0-0-0--0-0-0--0-5-3-2-3-3-2-2--------5-5-----------------------------|

chorus ( 2x ):

|---------------------------------------------------------------------------|
|---------------------------------------------------------------------------|
|---------------------------3-3---------------------------------------------|
|-0-3-2-2-0-0--0-3-2-2-0-0--3-3--5-5----------------------------------------|
|-0-3-2-2-0-0--0-3-2-2-0-0--1-1--5-5----------------------------------------|
|-0-3-2-2-0-0--0-3-2-2-0-0-------5-5----------------------------------------|

Intro ( 2x )

Verse

Chorus

Bridge:
		( 4x )
|---------------------------------------------------------------------------|
|---------------------------------------------------------------------------|
|-------------/7------------------------------------------------------------|
|-0-0--0-0-0--/x------------------------------------------------------------|
|-0-0--0-0-0--/5------------------------------------------------------------|
|-0-0--0-0-0----------------------------------------------------------------|


In The End, we're all just chalk lines...:

Clean:
							( 2x )
|---------------------------------------------------------------------------|
|-------------------6-------------------------8-6---------------------------|
|-7-7-5-7-5-7-5-7-5---7p5h7-7-7-5-7-5-7-5-7-5-----7-5-----------------------|
|---------------------------------------------------------------------------|
|---------------------------------------------------------------------------|
|---------------------------------------------------------------------------|

Distorted:

|---------------------------------------------------------------------------|
|---------------------------------------------------------------------------|
|----------------------3-3-3------------------------------------------------|
|-0-0-0-----0-0-0------3-3-3-----5-5-5--------------------------------------|
|-0-0-0-----0-0-0------1-1-1-----5-5-5--------------------------------------|
|-0-0-0-----0-0-0----------------5-5-5--------------------------------------|


I'd rather...:

Lead ( 2x ):

|---------------------------------------------------------------------------|
|---------------------------------------------------------------------------|
|----------------------------------5-5----------------5-7-7-5---------------|
|------5-7-5-8-7-5-7-5---------7-8-----8-7-8-7-5--------------8-7-5---------|
|-5-5------------------8--5-5---------------------8-8---------------8-------|
|---------------------------------------------------------------------------|
			
|---------------------------------------------------------------------------|
|---------------------------------------------------------------------------|
|---------------------------------------------------------------------------|
|-5-5-7-5-5-8-7-5-----------------------------------------------------------|
|-----------------3-5-------------------------------------------------------|
|---------------------------------------------------------------------------|

Rhythm ( 2x ):
						
|---------------------------------------------------------------------------|
|---------------------------------------------------------------------------|
|----------------------3-3-3------------------------------------------------|
|-0-0-0-----0-0-0------3-3-3-----5-5-5--3-3-3-------------------------------|
|-0-0-0-----0-0-0------1-1-1-----5-5-5--3-3-3-------------------------------|
|-0-0-0-----0-0-0----------------5-5-5--3-3-3-------------------------------|

Final Chorus:

Rhythm:

|---------------------------------------------------------------------------|
|---------------------------------------------------------------------------|
|-3-3-----------------------------------------------------------------------|
|-3-3--5-5------------------------------------------------------------------|
|-1-1--5-5------------------------------------------------------------------|
|------5-5------------------------------------------------------------------|
				
					( 3x )
|---------------------------------------------------------------------------|
|---------------------------------------------------------------------------|
|---------------------------3-3---------------------------------------------|
|-0-3-2-2-0-0--0-3-2-2-0-0--3-3--5-5----------------------------------------|
|-0-3-2-2-0-0--0-3-2-2-0-0--1-1--5-5----------------------------------------|
|-0-3-2-2-0-0--0-3-2-2-0-0-------5-5----------------------------------------|

Lead:
		( 4x )
|-----13h15-----------------------------------------------------------------|
|-15------------------------------------------------------------------------|
|---------------------------------------------------------------------------|
|---------------------------------------------------------------------------|
|---------------------------------------------------------------------------|
|---------------------------------------------------------------------------|

Outro:
		( 3x )
|---------------------------------------------------------------------------|
|---------------------------------------------------------------------------|
|-------------/7------------------------------------------------------------|
|-0-0--0-0-0--/x------------------------------------------------------------|
|-0-0--0-0-0--/5------------------------------------------------------------|
|-0-0--0-0-0----------------------------------------------------------------|

|---------------------------------------------------------------------------|
|---------------------------------------------------------------------------|
|---------------------------------------------------------------------------|
|-0-0--0-0-0----------------------------------------------------------------|
|-0-0--0-0-0----------------------------------------------------------------|
|-0-0--0-0-0----------------------------------------------------------------|



Playing Order:

Intro ( 4x )
verse 
Chorus
Intro ( 2x )
Verse
Chorus
Bridge
In The End, we're all just chalk lines...
I'd rather...
Final Chorus
Outro







| /  slide up
| \  slide down
| h  hammer-on
| p  pull-off
| ~  vibrato
| +  harmonic
| x  Mute note
            
Submit corrections

comments powered by Disqus
↑ Back to top | Five Finger Death Punch Tabs for Never Enough. Lyrics for acoustic guitar and electric guitar. 1 Tablatures and chords are parodies/interpretations of the original songs. You may use it for private study, scholarship, research or language learning purposes only