» » »

540,000 Degrees Fahrenheit Tabs (ver.2)

Artists:  A B C D E F G H I J K L M N O P Q R S T U V W X Y Z # 

540,000 Degrees Fahrenheit Tabs (ver.2)

Fear Factory
Rating:
0/5 (0 votes)

Hard to play? Try these video lessons and learn fast.
                This is my first song ive tabbed, i was listening to it and decided to tab it so i
got the feel of it, if youve got anything you have to tell me about it or something
ive done wrong, post in comments.

x - mute

Intro:

|--------------------|--------------------|--------------------|
|--------------------|--------------------|--------------------|
|--------------------|--------------------|--------------------|
|-2-2-2-2-2-2-2-2-2-2|-2-2-2-2-2-2-2-2-2-2|-2-2-2-2-2-2-2-2-2-2|
|-2-2-2-2-2-2-2-2-2-2|-2-2-2-2-2-2-2-2-2-2|-2-2-2-2-2-2-2-2-2-2|
|-3-2-2-3-2-2-3-2-3-2|-3-2-2-3-2-2-3-2-3-2|-3-2-2-3-2-2-3-2-3-2|

|----------------------------|
|----------------------------|
|----------------------------|
|-2-2-2-2-2-2-2-2-2-2-2-2-2-2|
|-2-2-2-2-2-2-2-2-2-2-2-2-2-2|
|-3-2-2-3-2-2-3-2-3-2-5-5-5-5| (repeat)

|------------------|------------------|------------------|
|------------------|------------------|------------------|
|------------------|------------------|------------------|
|-2-2--2-2--2-2-2-2|-2-2--2-2--2-2-2-2|-2-2--2-2--2-2-2-2|
|-2-2--2-2--2-2-2-2|-2-2--2-2--2-2-2-2|-2-2--2-2--2-2-2-2|
|-3-2--3-2--3-2-3-2|-3-2--3-2--3-2-3-2|-3-2--3-2--3-2-3-2|

|--------------------------|
|--------------------------|
|--------------------------|
|-2-2--2-2--2-2-2-2-2-2-2-2|
|-2-2--2-2--2-2-2-2-2-2-2-2|
|-3-2--3-2--3-2-3-2-5-5-5-5|   (repeat)

Verse 1:
During this verse its just the bass playing softly in the background, and the verse
goes for 32 bars, on the 12th and the 28th bar play this.

|------------------|------------------|------------------|
|------------------|------------------|------------------|
|------------------|------------------|------------------|
|-2-2--2-2--2-2-2-2|-2-2--2-2--2-2-2-2|-2-2--2-2--2-2-2-2|
|-2-2--2-2--2-2-2-2|-2-2--2-2--2-2-2-2|-2-2--2-2--2-2-2-2|
|-3-2--3-2--3-2-3-2|-3-2--3-2--3-2-3-2|-3-2--3-2--3-2-3-2|

|--------------------------|
|--------------------------|
|--------------------------|
|-2-2--2-2--2-2-2-2-2-2-2-2|
|-2-2--2-2--2-2-2-2-2-2-2-2|
|-3-2--3-2--3-2-3-2-5-5-5-5| 

Chorus:

|------------|------------|------------|------------|
|------------|------------|------------|------------|
|------------|------------|------------|------------|
|-2--2--2-2-2|-7--7--7-7-7|-5--5--5-5-5|-3--3--3-3-3|
|-2--2--2-2-2|-7--7--7-7-7|-5--5--5-5-5|-3--3--3-3-3|
|-2--2--2-2-2|-7--7--7-7-7|-5--5--5-5-5|-3--3--3-3-3|

Pre-verse:

|------------------|------------------|------------------|
|------------------|------------------|------------------|
|------------------|------------------|------------------|
|-2-2--2-2--2-2-2-2|-2-2--2-2--2-2-2-2|-2-2--2-2--2-2-2-2|
|-2-2--2-2--2-2-2-2|-2-2--2-2--2-2-2-2|-2-2--2-2--2-2-2-2|
|-3-2--3-2--3-2-3-2|-3-2--3-2--3-2-3-2|-3-2--3-2--3-2-3-2|

|--------------------------|
|--------------------------|
|--------------------------|
|-2-2--2-2--2-2-2-2-2-2-2-2|
|-2-2--2-2--2-2-2-2-2-2-2-2|
|-3-2--3-2--3-2-3-2-5-5-5-5| (repeat)

Verse 2:
This verse is only different from verse 1 in one way; its half as long. So start to
play this at the end of the 12th bar.

|------------------|------------------|------------------|
|------------------|------------------|------------------|
|------------------|------------------|------------------|
|-2-2--2-2--2-2-2-2|-2-2--2-2--2-2-2-2|-2-2--2-2--2-2-2-2|
|-2-2--2-2--2-2-2-2|-2-2--2-2--2-2-2-2|-2-2--2-2--2-2-2-2|
|-3-2--3-2--3-2-3-2|-3-2--3-2--3-2-3-2|-3-2--3-2--3-2-3-2|

|--------------------------|
|--------------------------|
|--------------------------|
|-2-2--2-2--2-2-2-2-2-2-2-2|
|-2-2--2-2--2-2-2-2-2-2-2-2|
|-3-2--3-2--3-2-3-2-5-5-5-5| 

Chorus:

|------------|------------|------------|------------|
|------------|------------|------------|------------|
|------------|------------|------------|------------|
|-2--2--2-2-2|-7--7--7-7-7|-5--5--5-5-5|-3--3--3-3-3|
|-2--2--2-2-2|-7--7--7-7-7|-5--5--5-5-5|-3--3--3-3-3|
|-2--2--2-2-2|-7--7--7-7-7|-5--5--5-5-5|-3--3--3-3-3|

Bridge:

|-------------------|
|-------------------|
|-------------------|
|-x-x-x--x-x-x--x--x|
|-x-x-x--x-x-x--x--x|
|-x-x-x--x-x-x--x--x|    (repeat 4 times)

|----------|-------------------|----------|-------------------|
|----------|-------------------|----------|-------------------|
|----------|-------------------|----------|-------------------|
|-5--4--5-7|-x-x-x--x-x-x--x--x|-5--4--6-5|-x-x-x--x-x-x--x--x|
|-5--4--5-7|-x-x-x--x-x-x--x--x|-5--4--6-5|-x-x-x--x-x-x--x--x|
|-5--4--5-7|-x-x-x--x-x-x--x--x|-5--4--6-5|-x-x-x--x-x-x--x--x|

|----------|-------------------|----------|-------------------|
|----------|-------------------|----------|-------------------|
|----------|-------------------|----------|-------------------|
|-5--4--5-7|-x-x-x--x-x-x--x--x|-5--4--6-5|-x-x-x--x-x-x--x--x|
|-5--4--5-7|-x-x-x--x-x-x--x--x|-5--4--6-5|-x-x-x--x-x-x--x--x|
|-5--4--5-7|-x-x-x--x-x-x--x--x|-5--4--6-5|-x-x-x--x-x-x--x--x|

|-------------------|-------------------|-------------------|
|-------------------|-------------------|-------------------|
|-------------------|-------------------|-------------------|
|-x-x-x--x-x-x--x--x|-x-x-x--x-x-x--x--x|-x-x-x--x-x-x--x--x|
|-x-x-x--x-x-x--x--x|-x-x-x--x-x-x--x--x|-x-x-x--x-x-x--x--x|
|-x-x-x--x-x-x--x--x|-x-x-x--x-x-x--x--x|-x-x-x--x-x-x--x--x|

Pre-Chorus:
Plays this bit again, but softer and slower.

|-------|-------|-------|-------|
|-------|-------|-------|-------|
|-------|-------|-------|-------|
|-5-4---|-5-6---|-5-4---|-6-5---|
|-5-4---|-5-6---|-5-4---|-6-5---|
|-5-4---|-5-6---|-5-4---|-6-5---|


Chorus:

|------------|------------|------------|------------|
|------------|------------|------------|------------|
|------------|------------|------------|------------|
|-2--2--2-2-2|-7--7--7-7-7|-5--5--5-5-5|-3--3--3-3-3|
|-2--2--2-2-2|-7--7--7-7-7|-5--5--5-5-5|-3--3--3-3-3|
|-2--2--2-2-2|-7--7--7-7-7|-5--5--5-5-5|-3--3--3-3-3| (repeat)

Outro:

|--------------------|--------------------|--------------------|
|--------------------|--------------------|--------------------|
|--------------------|--------------------|--------------------|
|-2-2-2-2-2-2-2-2-2-2|-2-2-2-2-2-2-2-2-2-2|-2-2-2-2-2-2-2-2-2-2|
|-2-2-2-2-2-2-2-2-2-2|-2-2-2-2-2-2-2-2-2-2|-2-2-2-2-2-2-2-2-2-2|
|-3-2-2-3-2-2-3-2-3-2|-3-2-2-3-2-2-3-2-3-2|-3-2-2-3-2-2-3-2-3-2|

|----------------------------|
|----------------------------|
|----------------------------|
|-2-2-2-2-2-2-2-2-2-2-2-2-2-2|
|-2-2-2-2-2-2-2-2-2-2-2-2-2-2|
|-3-2-2-3-2-2-3-2-3-2-5-5-5-5| (repeat)

|--------------|--------------|--------------|--------------------------|
|--------------|--------------|--------------|--------------------------|
|--------------|--------------|--------------|--------------------------|
|-2-2--2-2--x-x|-2-2--2-2--x-x|-2-2--2-2--x-x|-2-2--2-2--2-2-2-2-2-2-2-2|
|-2-2--2-2--x-x|-2-2--2-2--x-x|-2-2--2-2--x-x|-2-2--2-2--2-2-2-2-2-2-2-2|
|-3-2--3-2--x-x|-3-2--3-2--x-x|-3-2--3-2--x-x|-3-2--3-2--3-2-3-2-5-5-5-5|
(repeat)

Thats the whole thing, listen to the song if you want to get the right tempo for it.
If your a bass player, take the note from the bottom string and hit it for the bass
line.
            
Hard to play? Try these video lessons and learn fast. | Correct




comments powered by Disqus
↑ Back to top | Tablatures and chords are parodies/interpretations of the original songs. You may use it for private study, scholarship, research or language learning purposes only