» » »

540,000 Degrees Fahrenheit Tabs (ver.1)

Artists:  A B C D E F G H I J K L M N O P Q R S T U V W X Y Z # 

540,000 Degrees Fahrenheit Tabs (ver.1)

Fear Factory
Rating:
0/5 (0 votes)

Hard to play? Try these video lessons and learn fast.
                Band: Fear Factory
 




Tuning:C,G,C,F,A,D (Drop C)

Notes: 
correct as my band played it at battle of the bands.

Intro:

D|----------------------------------------------------------------------------|
A|----------------------------------------------------------------------------|
F|----------------------------------------------------------------------------|
C|-766-766--76-76-766-766--76-76-766-766--76-76-766-766-999-------------------|
G|-766-766--76-76-766-766--76-76-766-766--76-76-766-766-999-------------------|
C|-766-766--76-76-766-766--76-76-766-766--76-76-766-766-999-------------------| X however many

Verse:

D|----------------------------------------------------------------------------|
A|----------------------------------------------------------------------------|
F|----------------------------------------------------------------------------|
C|-766-766--76-76-766-766--76-76-766-766--76-76-766-766-999-------------------|
G|-766-766--76-76-766-766--76-76-766-766--76-76-766-766-999-------------------|
C|-766-766--76-76-766-766--76-76-766-766--76-76-766-766-999-------------------| X however many
 Pm-------------------------------------------------------

Mini bridge:

D|----------------------------------------------------------------------------|
A|----------------------------------------------------------------------------|
F|----------------------------------------------------------------------------|
C|-766-766--76-76-766-766--76-76-766-766--76-76-766-766-999-------------------|
G|-766-766--76-76-766-766--76-76-766-766--76-76-766-766-999-------------------|
C|-766-766--76-76-766-766--76-76-766-766--76-76-766-766-999-------------------| X however many

Verse:

D|----------------------------------------------------------------------------|
A|----------------------------------------------------------------------------|
F|----------------------------------------------------------------------------|
C|-766-766--76-76-766-766--76-76-766-766--76-76-766-766-999-------------------|
G|-766-766--76-76-766-766--76-76-766-766--76-76-766-766-999-------------------|
C|-766-766--76-76-766-766--76-76-766-766--76-76-766-766-999-------------------| X however many
 Pm-------------------------------------------------------


Mini bridge:

D|----------------------------------------------------------------------------|
A|----------------------------------------------------------------------------|
F|----------------------------------------------------------------------------|
C|-766-766--76-76-766-766--76-76-766-766--76-76-766-766-999-------------------|
G|-766-766--76-76-766-766--76-76-766-766--76-76-766-766-999-------------------|
C|-766-766--76-76-766-766--76-76-766-766--76-76-766-766-999-------------------| X however many

Chorus:

D|---------------------------------------------------------------------------|
A|---------------------------------------------------------------------------|
F|---------------------------------------------------------------------------|
C|-444444-444444-777777-777777-222222-222222-000000-000000-------------------|
G|-444444-444444-777777-777777-222222-222222-000000-000000-------------------|
C|-444444-444444-777777-777777-222222-222222-000000-000000-------------------| X2

Mini bridge:

D|----------------------------------------------------------------------------|
A|----------------------------------------------------------------------------|
F|----------------------------------------------------------------------------|
C|-766-766--76-76-766-766--76-76-766-766--76-76-766-766-999-------------------|
G|-766-766--76-76-766-766--76-76-766-766--76-76-766-766-999-------------------|
C|-766-766--76-76-766-766--76-76-766-766--76-76-766-766-999-------------------| X however many

Verse:

D|----------------------------------------------------------------------------|
A|----------------------------------------------------------------------------|
F|----------------------------------------------------------------------------|
C|-766-766--76-76-766-766--76-76-766-766--76-76-766-766-999-------------------|
G|-766-766--76-76-766-766--76-76-766-766--76-76-766-766-999-------------------|
C|-766-766--76-76-766-766--76-76-766-766--76-76-766-766-999-------------------| X however many
 Pm-------------------------------------------------------


Mini bridge:

D|----------------------------------------------------------------------------|
A|----------------------------------------------------------------------------|
F|----------------------------------------------------------------------------|
C|-766-766--76-76-766-766--76-76-766-766--76-76-766-766-999-------------------|
G|-766-766--76-76-766-766--76-76-766-766--76-76-766-766-999-------------------|
C|-766-766--76-76-766-766--76-76-766-766--76-76-766-766-999-------------------| X however ma

Chorus:

D|---------------------------------------------------------------------------|
A|---------------------------------------------------------------------------|
F|---------------------------------------------------------------------------|
C|-444444-444444-777777-777777-222222-222222-000000-000000-------------------|
G|-444444-444444-777777-777777-222222-222222-000000-000000-------------------|
C|-444444-444444-777777-777777-222222-222222-000000-000000-------------------| X2


D|---------------------------------------------------------------------------|
A|---------------------------------------------------------------------------|
F|---------------------------------------------------------------------------|
C|---------------------------------------------------------------------------|
G|---------------------------------------------------------------------------|
C|-7-6-7-9-000-000-0000-7-6-7-9-000-000-0000---------------------------------|X4

D|---------------------------------------------------------------------------|
A|---------------------------------------------------------------------------|
F|---------------------------------------------------------------------------|
C|---------------------------------------------------------------------------|
G|-000-000-0000--000-000-0000--000-000-0000--000-000-0000--------------------|
C|-000-000-0000--000-000-0000--000-000-0000--000-000-0000--------------------|

Chorus:

D|---------------------------------------------|
A|---------------------------------------------|
F|---------------------------------------------|
C|-4------47------72------20-------------------|
G|-4------47------72------20-------------------|
C|-4------47------72------20-------------------|
Chorus:

D|---------------------------------------------------------------------------|
A|---------------------------------------------------------------------------|
F|---------------------------------------------------------------------------|
C|-444444-444444-777777-777777-222222-222222-000000-000000-------------------|
G|-444444-444444-777777-777777-222222-222222-000000-000000-------------------|
C|-444444-444444-777777-777777-222222-222222-000000-000000-------------------| X4

Outro:

D|----------------------------------------------------------------------------|
A|----------------------------------------------------------------------------|
F|----------------------------------------------------------------------------|
C|-766-766--76-76-766-766--76-76-766-766--76-76-766-766-999-------------------|
G|-766-766--76-76-766-766--76-76-766-766--76-76-766-766-999-------------------|
C|-766-766--76-76-766-766--76-76-766-766--76-76-766-766-999-------------------| X however many


Outro:

D|----------------------------------------------------------------------|
A|----------------------------------------------------------------------|
F|----------------------------------------------------------------------|
C|-766-766--7-7-766-766--7-7-766-766--7-7-766-766-999-------------------|
G|-766-766--7-7-766-766--7-7-766-766--7-7-766-766-999-------------------|
C|-766-766--7-7-766-766--7-7-766-766--7-7-766-766-999-------------------| X however many



************************************

| /   slide up
| \   slide down
| h   hammer-on
| p   pull-off
| ~   vibrato
| +   harmonic
| x   Mute note
| b   Bend
| pb  Pre-bend
| br  Bend release
| pbr Pre-bend release
| brb Bend release bend

************************************
            
Hard to play? Try these video lessons and learn fast. | Correct




comments powered by Disqus
↑ Back to top | Tablatures and chords are parodies/interpretations of the original songs. You may use it for private study, scholarship, research or language learning purposes only