» » »

Fear Factory, 540,000 Degrees Fahrenheit Bass tabs (ver.1)

Artists:  A B C D E F G H I J K L M N O P Q R S T U V W X Y Z # 

540,000 Degrees Fahrenheit Bass tabs (ver.1)

Fear Factory Tabs
Rating:
0/5 (0 votes)
540,000 Degrees Fahrenheit lessons Tabs too difficult? Try these video lessons and learn fast
                Band: Fear Factory
  




Tuning:C,G,C,F (Drop C Bass)

Notes: 
correct as my band played it at battle of the bands.

Intro:

F|----------------------------------------------------------------------------|
C|----------------------------------------------------------------------------|
G|----------------------------------------------------------------------------|
C|-766-766--76-76-766-766--76-76-766-766--76-76-766-766-999-------------------| X however many

Verse:


F|----------------------------------------------------------------------------|
C|----------------------------------------------------------------------------|
G|----------------------------------------------------------------------------|
C|-766-766--76-76-766-766--76-76-766-766--76-76-766-766-999-------------------| X however many
 Pm-------------------------------------------------------

Mini bridge:


F|----------------------------------------------------------------------------|
C|----------------------------------------------------------------------------|
G|----------------------------------------------------------------------------|
C|-766-766--76-76-766-766--76-76-766-766--76-76-766-766-999-------------------| X however many

Verse:


F|----------------------------------------------------------------------------|
C|----------------------------------------------------------------------------|
G|----------------------------------------------------------------------------|
C|-766-766--76-76-766-766--76-76-766-766--76-76-766-766-999-------------------| X however many
 Pm-------------------------------------------------------


Mini bridge:


F|----------------------------------------------------------------------------|
C|----------------------------------------------------------------------------|
G|----------------------------------------------------------------------------|
C|-766-766--76-76-766-766--76-76-766-766--76-76-766-766-999-------------------| X however many

Chorus:


F|---------------------------------------------------------------------------|
C|---------------------------------------------------------------------------|
G|---------------------------------------------------------------------------|
C|-444444-444444-777777-777777-222222-222222-000000-000000-------------------| X2

Mini bridge:


F|----------------------------------------------------------------------------|
C|----------------------------------------------------------------------------|
G|----------------------------------------------------------------------------|
C|-766-766--76-76-766-766--76-76-766-766--76-76-766-766-999-------------------| X however many

Verse:


F|----------------------------------------------------------------------------|
C|----------------------------------------------------------------------------|
G|----------------------------------------------------------------------------|
C|-766-766--76-76-766-766--76-76-766-766--76-76-766-766-999-------------------| X however many
 Pm-------------------------------------------------------


Mini bridge:


F|----------------------------------------------------------------------------|
C|----------------------------------------------------------------------------|
G|----------------------------------------------------------------------------|
C|-766-766--76-76-766-766--76-76-766-766--76-76-766-766-999-------------------| X however ma

Chorus:


F|---------------------------------------------------------------------------|
C|---------------------------------------------------------------------------|
G|---------------------------------------------------------------------------|
C|-444444-444444-777777-777777-222222-222222-000000-000000-------------------| X2



F|---------------------------------------------------------------------------|
C|---------------------------------------------------------------------------|
G|---------------------------------------------------------------------------|
C|-7-6-7-9-000-000-0000-7-6-7-9-000-000-0000---------------------------------|X4


F|---------------------------------------------------------------------------|
C|---------------------------------------------------------------------------|
G|---------------------------------------------------------------------------|
C|-000-000-0000--000-000-0000--000-000-0000--000-000-0000--------------------|

Chorus:


F|---------------------------------------------|
C|---------------------------------------------|
G|---------------------------------------------|
C|-4------47------72------20-------------------|
Chorus:

F|---------------------------------------------------------------------------|
C|---------------------------------------------------------------------------|
G|---------------------------------------------------------------------------|
C|-444444-444444-777777-777777-222222-222222-000000-000000-------------------| X4

Outro:


F|----------------------------------------------------------------------------|
C|----------------------------------------------------------------------------|
G|----------------------------------------------------------------------------|
C|-766-766--76-76-766-766--76-76-766-766--76-76-766-766-999-------------------| X however many


Outro:


F|----------------------------------------------------------------------|
C|----------------------------------------------------------------------|
G|----------------------------------------------------------------------|
C|-766-766--7-7-766-766--7-7-766-766--7-7-766-766-999-------------------| X however many



************************************

| /   slide up
| \   slide down
| h   hammer-on
| p   pull-off
| ~   vibrato
| +   harmonic
| x   Mute note
| b   Bend
| pb  Pre-bend
| br  Bend release
| pbr Pre-bend release
| brb Bend release bend

************************************
            
Submit corrections

comments powered by Disqus
↑ Back to top | Fear Factory Bass for 540,000 Degrees Fahrenheit. Lyrics for acoustic guitar and electric guitar. Tablatures and chords are parodies/interpretations of the original songs. You may use it for private study, scholarship, research or language learning purposes only