>
 >
Ok 2

Ok 2 Bass Tabs

Farin Urlaub Racing Team - Ok 2 chords, tabs, tablatures, lyrics

Guitar lessons | Add/correct | Request | Top 50 tabs Artists:  A B C D E F G H I J K L M N O P Q R S T U V W X Y Z 0-9

Ok 2 Bass Tabs – Farin Urlaub Racing Team

CD, Sheet music, Poster

Do you like Ok 2? Share with your friends now
Bass TabsBass Tabs v2Bass Tabs v3TabsTabs v2
                Farin Urlaub - Ok

Main Riff:
G|--------------------------------------------|
D|--------------------------------------------|
A|--------------------------------------------|
E|-0-0-0-0-0--8-8-8-8----3-3-3-3-3--7-7-7-7---|


Intro: only guitar 2x

Then main riff 2x


Verse 1: 4x Main Riff


Pre-Chorus: 4x Main Riff

Chorus:
G|- - - - - - - 3x - - - - - - - - - - - - - |- - - - - - - 1x - - - - - -|
D|---5--5--5--5p4-4--4-5--4p2--2-2---54--242-|----5--5--5--5p4-4--2p0--2--|
A|-------------------------------------------|----------------------------|
E|-0-----------------------------------------|-0--------------------------|


Bridge I:
G|------------------------------------|
D|------------------------------------|
A|-7--7---7-7-5--5---3--3--3-5--5-----|
E|------------------------------------|

Then 2x Main Riff


Verse 2:
G|--------------------------------------------------------|
D|--------------------------------------------------------|   4x
A|--------------------------------------------------------|
E|-0-0-0-0-0--0-0-8--8--8--8--3-3-3-3-3--3-3-7--7--7--7---|


Pre-Chorus: 4x Main Riff


Chorus 4x


Bridge II:
 |- - - - - - - - - - - - 3x - - - - - - - - - -| 
G|----------------------------------------------|
D|----------------------------------------------|
A|----------------------------------------------|
E|-0--0-0--0-0--0-5--5-5--5-5--5-1---1--8---8---|

 |- - - - - - - - - - - - - - 1x - - - - - - - - - - - - - - - - - - - -|
G|----------------------------------------------------------------------|
D|----------------------------------------------------------------------|
A|-------------------------------------5---5--5-5--3-3-3-3-2-2-2-2------|
E|-5--5-5--5-5--5-5--5-5--5-5--5-3---3------------------------------5---|


Do this while guitar solo:
G|---------------------------------------------
D|---------------------------------------------
A|------------7--7-7--77-5--5--55-5-5-5-5--55--
E|-0--0--00-0----------------------------------

G|--------------------------------------|
D|--------------------------------------|           4x
A|-3--3--33-3-3-3-3-33-3-3-3-3-2-2-2-2--|
E|--------------------------------------|


Guitar Outro





Comments


Popular Farin Urlaub Racing Team tabs & chords
Atem Chords
Bewegungslos Chords
Der Papst Chords
Gluecklich Chords
Immer Noch Chords
Sonne Chords
Nichimgriff Tabs
Phanomenal Egal Tabs
Glcklich Ukulele
Sonne Ukulele


Song lyrics



↑ Back to top | Tablatures and chords are parodies/interpretations of the original songs. You may use it for private study, scholarship, research or language learning purposes only
© 2014 AZChords.com Contact us | Privacy policy | DMCA | Add/correct tabs | Request tabs | Top 50 tabs