>
 >
Ok 1

Ok 1 Guitar Tabs

Farin Urlaub Racing Team - Ok 1 chords, tabs, tablatures, lyrics

Guitar lessons | Add/correct | Request | Top 50 tabs Artists:  A B C D E F G H I J K L M N O P Q R S T U V W X Y Z 0-9

Ok 1 Guitar Tabs – Farin Urlaub Racing Team

CD, Sheet music, Poster

Do you like Ok 1? Share with your friends now
Bass TabsBass Tabs v2Bass Tabs v3TabsTabs v2
INTRO
    P.M.___      P.M._______          P.M.___      P.M.___
e|-------------------------------------------------------------|
B|-------------------------------------------------------------|
G|-------------------------------------------------------------|
D|--2-2-2-2--2---10-10-10-10--10------5-5-5-5--5---9-9-9-9--9--|
A|--2-2-2-2--2---10-10-10-10--10------5-5-5-5--5---9-9-9-9--9--|
E|--0-0-0-0--0----8--8--8--8---8------3-3-3-3--3---7-7-7-7--7--|

    P.M.___      P.M._______          P.M.___      P.M.___
e|-------------------------------------------------------------|-------------|
B|-------------------------------------------------------------|-------------|
G|-------------------------------------------------------------|-------------|
D|--2-2-2-2--2---10-10-10-10--10------5-5-5-5--5---9-9-9-9--9--|-------------|
A|--2-2-2-2--2---10-10-10-10--10------5-5-5-5--5---9-9-9-9--9--|-------------|
E|--0-0-0-0--0----8--8--8--8---8------3-3-3-3--3---7-7-7-7--7--|--7-7h8p7\5--|


    P.M.___      P.M._______          P.M.___      P.M.___
e|-------------------------------------------------------------|
B|-------------------------------------------------------------|
G|-------------------------------------------------------------|
D|--2-2-2-2--2---10-10-10-10--10------5-5-5-5--5---9-9-9-9--9--|
A|--2-2-2-2--2---10-10-10-10--10------5-5-5-5--5---9-9-9-9--9--|
E|--0-0-0-0--0----8--8--8--8---8------3-3-3-3--3---7-7-7-7--7--|

    P.M.___      P.M._______
e|---------------------------------------|
B|---------------------------------------|
G|---------------------------------------|
D|--2-2-2-2--2---10-10-10-10--10----5----|
A|--2-2-2-2--2---10-10-10-10--10----5----|
E|--0-0-0-0--0----8--8--8--8---8----3----|
                              stacc.*


VERSE (Bass plays INTRO 2 times)


CHORUS (play 2 times)
e|------------------------------------|------------------------------------|
B|-------7-7-8-8-7-7------7-7-8-8-7-7-|-----7-7-8-8-7-7------7-7-8-8-7-7---|
G|*--9-9--------------9-9-------------|-7-7--------------7-7--------------*|
D|*-----------------------------------|-----------------------------------*|
A|------------------------------------|------------------------------------|
E|------------------------------------|------------------------------------|


INTERLUDE
e|----------------------------------------|
B|----------------------------------------|
G|*--------------------------------------*|
D|*--5-5-5-5p4-4-4-4h5-4-2-2----2-2h5p2--*|
A|----------------------------------------|
E|----------------------------------------|

e|--------------------------------------|---------------------|
B|--------------------------------------|---------------------|
G|--------------------------------------|---------------------|
D|--5-5-5-5p4-4-4-4h5-4-2-2----2-2h5p2--|--5-5-5-5p4-4-2-0-2--|
A|--------------------------------------|---------------------|
E|--------------------------------------|---------------------|


BRIDGE
e|-----------------------------------------------------|
B|-----------------------------------------------------|
G|*---------------------------------------------------*|
D|*------14-14-xx-14-xx-12-12-x-10-10--10-------------*|
A|-------14-14-xx-14-xx-12-12-x-10-10--10--------------|
E|---0-0-12-12-xx-12-xx-10-10-x--8--8---8--7-7h8p7\5---|


    P.M.___      P.M._______       N.H.___   P.M.___      P.M.___      N.H.___
e|------------------------------------------------------------------------------|
B|------------------------------------------------------------------------------|
G|-------------------------------------------------------------------------<5>--|
D|--2-2-2-2--2---10-10-10-10--10---<5>-------5-5-5-5--5---9-9-9-9--9---<9>------|
A|--2-2-2-2--2---10-10-10-10--10-------<5>---5-5-5-5--5---9-9-9-9--9------------|
E|--0-0-0-0--0----8--8--8--8---8-------------3-3-3-3--3---7-7-7-7--7------------|

    P.M.___      P.M._______       N.H.___
e|------------------------------------------------|
B|------------------------------------------------|
G|------------------------------------------------|
D|--2-2-2-2--2---10-10-10-10--10---<5>-------5----|
A|--2-2-2-2--2---10-10-10-10--10-------<5>---5----|
E|--0-0-0-0--0----8--8--8--8---8-------------3----|
                                             * stacc.


VERSE again


CHORUS again


INTERLUDE again


        P.M._      P.M.___
e|------------------------------------------------|
B|------------------------------------------------|
G|*----------------------------------------------*|
D|*--2--2-2-2--2---7-7-7-7--7---3---10---7---10--*|
A|---2--2-2-2--2---7-7-7-7--7---3---10---7---10---|
E|---0--0-0-0--0---5-5-5-5--5---1----8---5----8---|

       P.M._      P.M.___
e|-------------------------------------------|
B|-------------------------------------------|
G|-------------------------------------------|
D|--2--2-2-2--2---7-7-7-7--7---3-------------|
A|--2--2-2-2--2---7-7-7-7--7---3-------------|
E|--0--0-0-0--0---5-5-5-5--5---1----8-8p7\5--|

    P.M.___      P.M.___                 PM_   PM____   PM
e|--------------------------------------------------------------|
B|--------------------------------------------------------------|
G|----------------------------------7--------5--------5------7--|
D|--7-7-7-7--7---7-7-7-7--7----5----7--------5--------5------7--|
A|--7-7-7-7--7---7-7-7-7--7----5----5----3-3-3-3--2-2-2-2----7--|
E|--5-5-5-5--5---5-5-5-5--5----3-----------------------------5--|
                                                             * stacc.

e|------------------------------------------------------------------------|
B|------------------------------------------------------------------------|
G|------------------------------------------------------------------------|
D|--2--14--12-14-14--12-12-12-12-12-10-10-10-10-10-10-10-10-10-10--5-4-2--|
A|--2--14--12-14-14--12-12-12-12-12-10-10-10-10-10-10-10-10-10-10--5-4-2--|
E|--0--12--10-12-12--10-10-10-10-10-8--8--8--8--8--8--8--8--8--8---3-2-0--|
                      * SOLO starts


SOLO

OUTRO
e|---------------------------------------------------------------------------|
B|---------------------------------------------------------------------------|
G|---0-0----0-0----0--------0------0------------0----0----4---2--------------|
D|--2------2------2--------4------4----4-------0----0----0---0---0-----------|
A|------------------------5------5----5-------3----3----3---3---3------------|
E|---------------------------------------------------------------------------|

e|---------------------------------------------------------------------------|
B|---------------------------------------------------------------------------|
G|---0-0----0-0----0--------0------0------------0----0----4---2---0-4--------|
D|--2------2------2--------4------4----4-------0----0----0---0---0-----------|
A|------------------------5------5----5-------3----3----3---3---3------------|
E|---------------------------------------------------------------------------|

e|---------------------------------------------------------------------------|
B|---------------------------------------------------------------------------|
G|----4----4----4------2----2-----------2------------------------------------|
D|---0----0----0------0----0----0---0---2------------------------------------|
A|--------------------------------------0------------------------------------|
E|--3----3----3------1----1----1---0-----------------------------------------|





Comments


Popular Farin Urlaub Racing Team tabs & chords
Abschiedslied Chords
Gluecklich Chords
Phnomenal Egal Chords
Worte Fehlen 2 Chords
Der Kavalier Tabs
Unscharf Tabs
Zehn Live Tabs
Die Leiche Ukulele
Kein Zuruck 2 Ukulele
Porzellan Ukulele


Song lyrics



↑ Back to top | Tablatures and chords are parodies/interpretations of the original songs. You may use it for private study, scholarship, research or language learning purposes only
© 2014 AZChords.com Contact us | Privacy policy | DMCA | Add/correct tabs | Request tabs | Top 50 tabs