>
 >
Ok

Ok Guitar Tabs

Farin Urlaub Racing Team - Ok chords, tabs, tablatures, lyrics

Guitar lessons | Add/correct | Request | Top 50 tabs Artists:  A B C D E F G H I J K L M N O P Q R S T U V W X Y Z 0-9

Ok Guitar Tabs – Farin Urlaub Racing Team

CD, Sheet music, Poster

Do you like Ok? Share with your friends now
Bass TabsBass Tabs v2Bass Tabs v3TabsTabs v2
Farin Urlaub  OK

Das ganze Lied wird mit einem dezenten Echo gespielt, man muss aber nicht unbedingt mit Echo spielen! 

Intro:

Gtr.1
Fig.1
  PM----|   PM----|   PM----|   PM----|
|------------------------------------------||----------|-----------|
|-------------------5-------------------4--||---0--/---|-----------|
|---------0---------5---------3---------4--||-----/----|-4b(6)r4p2-|
|---------2---------5---------5---------4--||----/-----|-----------|
|---------2-3-3-3-3-3---------5-2-2-2-2-2--||---/--0---|-----------|
|-0-0-0-0-0-----------3-3-3-3-3------------||----------|-----------|
|
|Gtr.2
| PM----|   PM----|   PM----|   PM----|
|------------------------------------------||----------|-----------|
|-------------------5-------------------4--||---0--/---|-----------|
|---------0---------5---------3---------4--||-----/----|-7b(9)r7p5-|
|---------2---------5---------5---------4--||----/-----|-----------|
|---------2-3-3-3-3-3---------5-2-2-2-2-2--||---/--0---|-----------|
|-0-0-0-0-0-----------3-3-3-3-3------------||----------|-----------|


Gtr.1 & 2 Spielen Fig.1

Gtr.1 & 2
  PM----|   PM----|     
|------------------------|
|-------------------5----|
|---------0---------5--3-|
|---------2---------5--5-|
|---------2-3-3-3-3-3--5-|
|-0-0-0-0-0------------3-|

Verse:

Pause (Nur Bass spielt)

Gtr.1
  PM-------------------------------------------------------------|
|------------------------------------------------------------------|
|-----7-7-8-8-7-7-----7-7-8-8-7-7-----7-7-8-8-7-7-----7-7-8-8-7-7--|
|-9-9-------------9-9-------------7-7-------------7-7--------------|
|------------------------------------------------------------------|
|------------------------------------------------------------------|
|------------------------------------------------------------------|
|                                          
|Gtr.2                                                                  4x
|------------------------------------------------------------------|
|------------------------------------------------------------------|
|Gtr.2 spielt Fig.1------------------------------------------------|
|------------------------------------------------------------------|
|------------------------------------------------------------------|
|------------------------------------------------------------------|



Chorus:

Gtr.2 Spielt nichts  
Gtr.1                                         3x
|-----------------------------------------------|-------------------------|
|-----------------------------------------------|-------------------------|
|-----------------------------------------------|-------------------------|
|-----------------------------------------------|-------------------------|
|-10-10-10-10\9--9--9--9-/10-9-\-7-7---7-7/9-\7-|-10-10-10-10\9--9-\7\5/7-|
|-----------------------------------------------|-------------------------|

Gtr.1 & 2
  PM-|    
|----------------------------------------------|
|----------------------------------------------|
|-----9-9-x-x-9-x-x-7-7-x-x-5-5-x-x-5-5--5/7\5-|
|-----9-9-x-x-9-x-x-7-7-x-x-5-5-x-x-5-5--5/7\5-| 2x
|-----7-7-x-x-7-x-x-5-5-x-x-3-3-x-x-3-3--3/5\3-|
|-0-0-----x-x---x-x-----x-x-----x-x------------|


Pre-Verse:
Gtr.1
Fig.2
  PM----|   PM----|  Harm-|PM----|   PM----|  Harm-|
|---------------------------------------------------|
|-------------------5-5----------------------4-7----|
|---------0---------5---5----------3---------4---5--|
|---------2---------5--------------5---------4------|
|---------2-3-3-3-3-3--------------5-2-2-2-2-2------|
|-0-0-0-0-0----------------3-3-3-3-3----------------|
|
|Gtr.2
| PM----|   PM----|        PM----|   PM----|
|---------------------------------------------------|
|-------------------5------------------------4------|
|---------0---------5--------------3---------4------|
|---------2---------5--------------5---------4------|
|---------2-3-3-3-3-3--------------5-2-2-2-2-2------|
|-0-0-0-0-0----------------3-3-3-3-3----------------|


Gtr.1 & 2
  PM----|   PM----|     
|------------------------|
|-------------------5----|
|---------0---------5--3-|
|---------2---------5--5-|
|---------2-3-3-3-3-3--5-|
|-0-0-0-0-0------------3-|

Verse

Chorus

Brige:
Gtr.1 & 2
|---------------------------------------------|
|---------------------------------------------|
|---------------------------------------------|
|-2-2-2-2-x-x-x-x-x-7-7-73-3-----------------|    2x
|-2-2-2-2-x-x-x-x-x-7-7-7-3-3-----3-----0-----|
|-0-0-0-0-x-x-x-x-x-5-5-51-1-0-1---0-1---1-0-|




|----------------------------------------------|
|----------------------------------------------|
|----------------------------------------------|
|-2-2-2-2-x-x-x-x-x-7-7-73-3------------------|    
|-2-2-2-2-x-x-x-x-x-7-7-7-3-3-----3-3-2-0------|
|-0-0-0-0-x-x-x-x-x-5-5-51-1-0-1--------------|

|------------------------------------|
|------------------------------------|
|---------------------------------7--|
|--7-7-7-7--7---7-7-7-7--7----5---7--|
|--7-7-7-7--7---7-7-7-7--7----5---5--|
|--5-5-5-5--5---5-5-5-5--5----3------|
Gtr.1
|-----------------|
|-----------------|
|-----5------4----|
|-----5------4--7-|
|-3-3-3--2-2-2--7-|
|---------------5-|
|
|Gtr.2
|-----------------|
|-----------------|
|----0------0-----|
|---2--2---4--4-7-|
|-3------2------7-|
|---------------5-|

Solo:

Gtr.1
|----------------------------------------------------------------12^10^12-|
|----------7(32x Bend Steigern)----------5^7b8r7b8r7b8---5^7^5-12---------|
|-------------------------------------------------------------------------|
|-------------------------------------------------------------------------|
|-------------------------------------------------------------------------|
|-------------------------------------------------------------------------|

|-------------------------------------------------------------------------------------------------|
|-----------------14b----14b-14b-14b---14b--------------------------------------------------------|
|--12------12-----14b----14b-14b-14b---14b^12----12~~-----14b15r14^12^14b15b16(32x Bend steigern)-|
|------14-------------------------------------14--------------------------------------------------|
|-------------------------------------------------------------------------------------------------|
|-------------------------------------------------------------------------------------------------|

|--12(16x)--14(16x)--15(16x)--17(16x)--19b20r19b20r19--|
|------------------------------------------------------|
|------------------------------------------------------|
|------------------------------------------------------|
|------------------------------------------------------|
|------------------------------------------------------|

|--15^12^10^12--15^12^10^12--|
|----------------------------|
|----------------------------|
|----------------------------|
|----------------------------|
|----------------------------|

|---17(8x)-15(2x)-17(2x)--19(8x)-17(2x)-19(2x)--22(8x)-19(2x)-22(2x)--24(16x)/17-|
|--------------------------------------------------------------------------------|
|--------------------------------------------------------------------------------|
|--------------------------------------------------------------------------------|
|--------------------------------------------------------------------------------|
|--------------------------------------------------------------------------------|

|----12(16x)--10-10------------------------------------------------|
|--------------------12-----10b11~~--10b11-10b11-10b11-10b11r10----|
|-------------------------9-------------------------------------9--|
|------------------------------------------------------------------|
|------------------------------------------------------------------|
|------------------------------------------------------------------|
Outro:

Gtr.1
|------------------------------------------------------------------------|
|------------------------------------------------------------------------|
|------0-----0----------0-----0----------0-----0------4------2------0----|
|----5-----5-----5----4-----4-----4----0-----0-----0----0------0------0--|
|--7-----7-----7----5-----5-----5----3-----3-----3--------3------3-------|
|------------------------------------------------------------------------|

|------------------------------------------------------------------------|
|------------------------------------------------------------------------|
|------0-----0----------0-----0----------0-----0------4------2------0----|
|----5-----5-----5----4-----4-----4----0-----0-----0----0------0------0--|
|--7-----7-----7----5-----5-----5----3-----3-----3--------3------3-------|
|------------------------------------------------------------------------|
 
|-----------------------------------------------|
|-----------------------------------------------|
|------4--------4--------4--------4-------2-----|
|----0---0----0---0----0---0----0--------2------|
|---------------------------------------2-------|
|--3--------3--------1--------1--------0--------|





Comments


Popular Farin Urlaub Racing Team tabs & chords
Ok 3 Bass Tabs
Abschiedslied Chords
Der Kavalier Chords
Zehn Chords
Ich Hasse Dich Intro Tabs
Krimel Tabs
Niemals Intro 1 Tabs
Unter Wasser Tabs
Atem Ukulele
Zehn Ukulele


Song lyrics



↑ Back to top | Tablatures and chords are parodies/interpretations of the original songs. You may use it for private study, scholarship, research or language learning purposes only
© 2014 AZChords.com Contact us | Privacy policy | DMCA | Add/correct tabs | Request tabs | Top 50 tabs