» » »

Farin Urlaub, Zehn Tabs (ver.2)

Artists:  A B C D E F G H I J K L M N O P Q R S T U V W X Y Z # 

Zehn Tabs (ver.2)

Farin Urlaub Tabs
Rating:
0/5 (0 votes)
Zehn lessons Tabs too difficult? Try these video lessons and learn fast
                (Live)
Die Gitarre ist einen Halbton tiefer gestimmt!


Intro Riff: (mit Blech): 4x
E----------------------------------------------------|
H----------------------------------------------------|
G---1---4--6--7--6-----------------------------------|
D---2---5--7--8--7-----------------------------------|
A---2---5--7--8--7-----------------------------------|
E---0---3--5--6--5-----------------------------------|


Strophe: 10x

E----------------------------------------------------|
H----------------------------------------------------|
G----------------------------------------------------|
D----------------------------------------------------|
A----------------------------------------------------|
E--0-0-0-0-0-0-0-0-0--3-3-3-3-3-3-3-3----------------|

E----------------------------------------------------|
H----------------------------------------------------|
G----------------------------------------------------|
D----------------------------------------------------|
A----------------------------------------------------|
E--5-5-5-5-5-5-5-5-5-5-5-5-5-5-5-5-5-5---------------|


Strophe Ende:

E----------------------------------------------------|
H----------------------------------------------------|
G----------------------------------------------------|
D----------------------------------------------------|
A--3-3-3-3-3-3-3-3-3-3-3-3-3-3-3-3-3-3---------------|
E---------------------------------------5------------|


Pre-Chorus:

Nur Bass!


Chorus:

E----------------------------------------------------|
H----------------------------------------------------|
G---1---4--/6---4---7---6----------------------------|
D---2---5--/7---5---8---7----------------------------|
A---2---5--/7---5---8---7----------------------------|
E---0---3--/5---3---6---5----------------------------|

                 P.M.---------------------------------|
E-----------------------------------------------------|
H-----------------------------------------------------|
G---1---4--/6---4-------------------------------------|
D---2---5--/7---5---8-7-6-5-4-3-----------------------|
A---2---5--/7---5---8-7-6-5-4-3-----------------------|
E---0---3--/5---3---6-5-4-3-2-1-----------------------|

E----------------------------------------------------|
H---------------------14^15^14^15^14^15...-----------|
G---1---4--/6---4------------------------------------|
D---2---5--/7---5------------------------------------|
A---2---5--/7---5------------------------------------|
E---0---3--/5---3------------------------------------|

E----------------------------------------------------|
H----------------------------------------------------|
G---1---4--/6---4---7---6-------1--------------------|
D---2---5--/7---5---8---7-------2--------------------|
A---2---5--/7---5---8---7-------2--------------------|
E---0---3--/5---3---6---5-------0--------------------|


2.Strophe: 7x

E----------------------------------------------------|
H----------------------------------------------------|
G----------------------------------------------------|
D----------------------------------------------------|
A----------------------------------------------------|
E--0-0-0-0-0-0-0-0-0--3-3-3-3-3-3-3-3----------------|

E----------------------------------------------------|
H----------------------------------------------------|
G----------------------------------------------------|
D----------------------------------------------------|
A----------------------------------------------------|
E--5-5-5-5-5-5-5-5-5-5-5-5-5-5-5-5-5-5---------------|


"Ich sag euch eins"

E----------------------------------------------------|
H----------------------------------------------------|
G----------------------------------------------------|
D---2------------------------------------------------|
A---2------------------------------------------------|
E---0-0-0-0-0-0-0-0-0---3-3-3-3-3-3-3-3--------------|

E----------------------------------------------------|
H----------------------------------------------------|
G----------------------------------------------------|
D----------------------------------------------------|
A----------------------------------------------------|
E---5-5-5-5-5-5-5-5-5-5-5-5-5-5-5-5-5-5--------------|


"Ich sag zwei"

E----------------------------------------------------|
H----------------------------------------------------|
G----------------------------------------------------|
D--2-2-----------------------------------------------|
A--2-2-----------------------------------------------|
E--0-0-0-0-0-0-0-0-0--3-3-3-3-3-3-3-3----------------|

E----------------------------------------------------|
H----------------------------------------------------|
G----------------------------------------------------|
D----------------------------------------------------|
A----------------------------------------------------|
E--5-5-5-5-5-5-5-5-5-5-5-5-5-5-5-5-5-5---------------|


"Manchmal geh ich weiter und sag elf"

E----------------------------------------------------|
H----------------------------------------------------|
G----------------------------------------------------|
D----------------------------------------------------|
A----------------------------------------------------|
E--0-0-0-0-0-0-0-0-0--3-3-3-3-3-3-3-3----------------|

E----------------------------------------------------|
H----------------------------------------------------|
G----------------------------------------------------|
D------7-7-7-7-7-7-7-7-7-7-7-7-----------------------|
A------7-7-7-7-7-7-7-7-7-7-7-7-----------------------|
E--5-5-5-5-5-5-5-5-5-5-5-5-5-5-----------------------|


E----------------------------------------------------|
H----------------------------------------------------|
G----------------------------------------------------|
D----------------------------------------------------|
A----------------------------------------------------|
E--0-0-0-0-0-0-0-0-0--3-3-3-3-3-3-3-3----------------|

E----------------------------------------------------|
H----------------------------------------------------|
G----------------------------------------------------|
D----------------------------------------------------|
A----------------------------------------------------|
E--5-5-5-5-5-5-5-5-5-5-5-5-5-5-5-5-5-5---------------|


2.Strophe Ende

E----------------------------------------------------|
H----------------------------------------------------|
G----------------------------------------------------|
D----------------------------------------------------|
A--3-3-3-3-3-3-3-3-3-3-3-3-3-3-3-3-3-3---------------|
E---------------------------------------5------------|


Pre-Chorus

E----------------------------------------------------|
H----------------------------------------------------|
G----------------------------------------------------|
D---2------------------------------------------------|
A---2------------------------------------------------|
E---0------------------------------------------------|


Chorus:

E----------------------------------------------------|
H----------------------------------------------------|
G---1---4--/6---4---7---6----------------------------|
D---2---5--/7---5---8---7----------------------------|
A---2---5--/7---5---8---7----------------------------|
E---0---3--/5---3---6---5----------------------------|

                 P.M.---------------------------------|
E-----------------------------------------------------|
H-----------------------------------------------------|
G---1---4--/6---4-------------------------------------|
D---2---5--/7---5---8-7-6-5-4-3-----------------------|
A---2---5--/7---5---8-7-6-5-4-3-----------------------|
E---0---3--/5---3---6-5-4-3-2-1-----------------------|

E----------------------------------------------------|
H---------------------14^15^14^15^14^15...-----------|
G---1---4--/6---4------------------------------------|
D---2---5--/7---5------------------------------------|
A---2---5--/7---5------------------------------------|
E---0---3--/5---3------------------------------------|

E----------------------------------------------------|
H----------------------------------------------------|
G---1---4--/6---4------------------------------------|
D---2---5--/7---5------------------------------------|
A---2---5--/7---5------------------------------------|
E---0---3--/5---3------------------------------------|

Schlagzeug Fill!

E----------------------------------------------------|
H----------------------------------------------------|
G---1---4--/6---4---7---6----------------------------|
D---2---5--/7---5---8---7----------------------------|
A---2---5--/7---5---8---7----------------------------|
E---0---3--/5---3---6---5----------------------------|

                 P.M.---------------------------------|
E-----------------------------------------------------|
H-----------------------------------------------------|
G---1---4--/6---4-------------------------------------|
D---2---5--/7---5---8-9-10-11-12-13-------------------|
A---2---5--/7---5---8-9-10-11-12-13-------------------|
E---0---3--/5---3---6-7-8--7--10-11-------------------|

E----------------------------------------------------|
H---------------------14^15^14^15^14^15...-----------|
G---1---4--/6---4------------------------------------|
D---2---5--/7---5------------------------------------|
A---2---5--/7---5------------------------------------|
E---0---3--/5---3------------------------------------|

E----------------------------------------------------|
H----------------------------------------------------|
G---1---4--/6---4---7---6----------------------------|
D---2---5--/7---5---8---7----------------------------|
A---2---5--/7---5---8---7----------------------------|
E---0---3--/5---3---6---5----------------------------|


Schluss Riff (mit Blech): 3x
E----------------------------------------------------|
H----------------------------------------------------|
G---1---4--6--7--6-----------------------------------|
D---2---5--7--8--7-----------------------------------|
A---2---5--7--8--7-----------------------------------|
E---0---3--5--6--5-----------------------------------|


Schluss:
E----------------------------------------------------|
H----------------------------------------------------|
G---1---4--6----7-7--6---7-7--6---7-7--6---1---------|
D---2---5--7----8-8--7---8-8--7---8-8--7---2---------|
A---2---5--7----8-8--7---8-8--7---8-8--7---2---------|
E---0---3--5----6-6--5---6-6--5---6-6--5---0---------|
            

comments powered by Disqus
↑ Back to top | Farin Urlaub Tabs for Zehn. Lyrics for acoustic guitar and electric guitar. Tablatures and chords are parodies/interpretations of the original songs. You may use it for private study, scholarship, research or language learning purposes only