» » »

Family Force 5, Wake The Dead Bass tabs (ver.1)

Artists:  A B C D E F G H I J K L M N O P Q R S T U V W X Y Z # 

Wake The Dead Bass tabs (ver.1)

Family Force 5 Tabs
 Rating:
4/5 (4 votes)
Wake The Dead lessons Tabs too difficult? Try these video lessons and learn fast
                                        Wake The Dead ~ Family Force 5
Drop D tuning
 
Intro
G|-------------------------------------------------------|
D|-------------------------------------------------------|
A|-236-23--236-23--66233-23-23--236-23--236-23--236-23---|
E|-------1-------1--------------------1-------1-------1--|

 Verse 1
G|----------------------------|
D|----------------------------| 
A|-3---3----------2--2--------|
E|--------------------56-45---|

G|----------------------------|
D|----------------------------|
A|-3---3------3-3-2--2--------|
E|--------------------56-45---|
 
G|-------------------------------------------------|
D|-------------------------------------------------|
A|-------------------------------------------------|
E|-56--56-56-45--45-45-56--56-56-4545454545454545--|

 Chorus
G|--------------|
D|--------------| x3
A|-66233-23-23--|
E|--------------|

G|------------------|
D|------------------|
A|-236-23--236-23---|
E|-------1-------1--|

 Verse 2
G|----------------------------|
D|----------------------------| 
A|-3---3----------2--2--------|
E|--------------------56-45---|

G|----------------------------|
D|----------------------------|
A|-3---3------3-3-2--2--------|
E|--------------------56-45---|

G|-------------------------------------------------|
D|-------------------------------------------------|
A|-------------------------------------------------|
E|-56--56-56-45--45-45-56--56-56-4545454545454545--|

 Chorus
G|--------------|
D|--------------| x3
A|-66233-23-23--|
E|--------------|

G|------------------|
D|------------------|
A|-236-23--236-23---|
E|-------1-------1--|

the next part you dont play until it comes back to the chorus again.

Chorus
G|--------------|    |------------------|
D|--------------| x3 |------------------| (play entire chorus x2)
A|-66233-23-23--|    |-236-23--236-23---|
E|--------------|    |-------1-------1--|
                           
            
Submit corrections

comments powered by Disqus
↑ Back to top | Family Force 5 Bass for Wake The Dead. Lyrics for acoustic guitar and electric guitar. Tablatures and chords are parodies/interpretations of the original songs. You may use it for private study, scholarship, research or language learning purposes only