» » »

Wake The Dead Tabs (ver.1)

Artists:  A B C D E F G H I J K L M N O P Q R S T U V W X Y Z # 

Wake The Dead Tabs (ver.1)

Family Force 5
Rating:
0/5 (0 votes)

Hard to play? Try these video lessons and learn fast.
                
Drop D Tuning

I think this is pretty much right... please leave comments and rate =]

Intro
Guitar 1                    *Guitar 2 comes in here 
e|-------------------------|-------------------|-------------------------|
B|-------------------------|-------------------|-------------------------|
G|--45-8--45----45-8--45---|-88-45-5--4s5--4s5-|-45-8--45----45-8--45----|
D|--45-8--45-4--45-8--45-4-|-88-45-5--4s5--4s5-|-45-8--45-4--45-8--45-4--|
A|--23-6--23-2--23-6--23-2-|-66-23-3--2s3--2s3-|-23-6--23-2--23-6--23-2--|
D|-----------4-----------4-|-------------------|----------4-----------4--|

Guitar 2
e|----------15-14--15~-|-20---------------|
B|--13~----------------|-----13-13-13-13--|
G|---------------------|------------------|
D|---------------------|------------------|
A|---------------------|------------------|
D|---------------------|------------------|

Verse
Guitar 1                              *Play these in verse 1 only    
e|--------|--------|---------|---------------|-------|---------|
B|--------|--------|---------|---------------|-------|---------|
G|--5---5-|-4---4--|---------|-5---5---------|-4---4-|---------|
D|--5---5-|-4---4--|---------|-5---5---------|-4---4-|---------|
A|--3---3-|-2---2--|-4s5-4s5-|-3---3--3*-3*--|-2---2-|-4s5-4s5-|
D|--------|--------|-4s5-4s5-|---------------|-------|-4s5-4s5-|

Continued
e|-------------------|------------------|------------------|----------------------------------|
B|-------------------|------------------|------------------|----------------------------------|
G|-------------------|------------------|------------------|----------------------------------|
D|-------------------|------------------|------------------|----------------------------------|
A|--5s6-----5s6--5s6-|-4s5-----4s5--4s5-|-5s6-----5s6--5s6-|-4s5-4s5-4s5-4s5-4s5-4s5-4s5-4s5--|
D|--5s6-----5s6--5s6-|-4s5-----4s5--4s5-|-5s6-----5s6--5s6-|-4s5-4s5-4s5-4s5-4s5-4s5-4s5-4s5--|

Chorus
Guitar 1  
e|---------------------|
B|---------------------|
G|--88-45-5--4s5--4s5--| x3
D|--88-45-5--4s5--4s5--|
A|--66-23-3--2s3--2s3--|
D|---------------------|

Continued
e|--------------------------|
B|--------------------------|
G|--45-8--45----45-8--45----|
D|--45-8--45-4--45-8--45-4--|
A|--23-6--23-2--23-6--23-2--|
D|-----------4-----------4--|

Repeat Verse

Repeat Chorus

Bridge No Guitar

Repeat Chorus x2
            
Hard to play? Try these video lessons and learn fast. | Correct




comments powered by Disqus
↑ Back to top | Tablatures and chords are parodies/interpretations of the original songs. You may use it for private study, scholarship, research or language learning purposes only