» » »

Fall Out Boy, Tell That Mick He Just Made My List Of Things To Do Today Tabs (ver.3)

Artists:  A B C D E F G H I J K L M N O P Q R S T U V W X Y Z # 

Tell That Mick He Just Made My List Of Things To Do Today Tabs (ver.3)

Fall Out Boy Tabs
Rating:
0/5 (0 votes)
Tell That Mick He Just Made My List Of Things To Do Today lessons Tabs too difficult? Try these video lessons and learn fast
                
Instrument: 6 String Guitar


Tuning: Standard (E A D G B E)

t = 10 and e = eleven so everything lines up nicely

/ = slide
. = palm mute
h = hammer on
p = pull off
~ = let ring


                            ********INTRO*********  

Guitar 1 0:03
E|---------------------------------||
B|---------------------------------||
G|-9999999999999999----------------||
D|-9999999999999999----------------||
A|-7777777777777777----------------||
E|---------------------------------||

Guitar 2 0:03
E|---------------------------------||
B|---------------------------------||
G|---------------------------------||
D|-2222222222222222----------------||
A|-2222222222222222----------------||
E|-0000000000000000----------------||




Guitar 1 0:05
E|-----------------------------------------------||
B|-9999-/tttt--7777-9999--5555--7777--5555--7777-||
G|-9999--9999--8888-8888--6666--6666--6666--6666-||  x 3
D|-------------9999-9999--7777--7777--7777--7777-||
A|-----------------------------------------------||
E|-----------------------------------------------||

E|---------------------------------------------||
B|-9999-/tttt--------7777--5555-77777----------||
G|-9999--9999--9999--9999--6666-66666----------||
D|-------------9999--9999--7777-77777--4-6-4---||
A|-------------------------------------------7-||
E|---------------------------------------------||



Guitar 2 0:13
E|-\-------------------------------------||
B|-\-------------------------------------||
G|-----------------------------66666666--||
D|----22~---22-22222222222222--66666666--||
A|----22~---22-22222222222222--44444444--||
E|----00~---00-00000000000000------------||
               ..............  ........



                         **********VERSE***********

Guitar 2 0:24
E|----------------------------------||
B|----------------------------------||
G|--------66666666------------------||  x 4
D|-22222--66666666--66666--777-7/9--||
A|-22222--44444444--66666--777-7/9--||
E|-00000------------44444--555-5/7--||

Guitar 2 0:44
E|---------------------------------||
B|---------------------------------||
G|-99-e-9---99-8/9-9---------------||  x 8, 8th time keep strumming last   
D|-99-9-9---99-8/9-9---------------||       chord.
A|-77-9-7---77-6/7-7---------------||
E|---------------------------------||
   .        .


Guitar 1 0:53
E|----------------------------------------------------------------------||
B|-5p4-0-5555-7777-4444-4h555-5555-7777-4444-4h555-5555-7777-4444-4h555-||
G|----------------------------------------------------------------------||
D|----------------------------------------------------------------------||
A|----------------------------------------------------------------------||
E|----------------------------------------------------------------------||
         .... .... ....       .... .... ....       .... .... ....

E|-----------------------------||
B|-5p4h5p4h5p4h5p4h5p4h5p4h5p4-||
G|-----------------------------||
D|-----------------------------||
A|-----------------------------||
E|-----------------------------||


Guitar 2 1:03
E|-------------------------------------------------------------------||
B|-------------------------------------------------------------------||
G|-222222222222--66666-4444-4/6/4--222222222222--6666---4444--44/6/4-|| x2
D|-222222222222--66666-4444-4/6/4--222222222222--6666---4444--44/6/4-||
A|-000000000000--44444-2222-2/4/2--000000000000--4444---2222--22/4/2-||
E|-------------------------------------------------------------------||


Guitar 1 1:11
E|------------------------||
B|------------------------||
G|-/999999-/999999-/9999--||
D|--xxxxxx--xxxxxx--xxxx--||
A|-/777777-/777777-/7777--||
E|------------------------||

                    
                     **********CHORUS**********

Guitars 1&2
E|----0----0----0------------||
B|----0----0----0------------||
G|------66-------------------|| x 2
D|-22---66---66---77-99999---||
A|-22---44---66---77-99999---||
E|-00--------44---55-77777---||


                  *******PLAY INTRO AGAIN********


                    *********VERSE 2**********

Guitar 2 1:52
E|-------------------------------------||
B|-------------------------------------||
G|------------------66666--------------||
D|-222-2~---2-22222-66666-66666-77777--||
A|-222-2~---2-22222-44444-66666-77777--||
E|-000-0~---0-00000-------44444-55555--||
   ...        ..... ..... .....

Guitar 2 2:02
E|-------------------------------------------------------------------||
B|-------------------------------------------------------------------||
G|-222222222222--66666-4444-4/6/4--222222222222--6666---4444--44/6/4-|| x2
D|-222222222222--66666-4444-4/6/4--222222222222--6666---4444--44/6/4-||
A|-000000000000--44444-2222-2/4/2--000000000000--4444---2222--22/4/2-||
E|-------------------------------------------------------------------||


                   ******CHORUS AGAIN********


Guitar 2 2:31
E|---------------------------------------||
B|---------------------------------------||
G|----------66666666---------------------|| x 2
D|-22222222-66666666-66666666-7777-9999--||
A|-22222222-44444444-66666666-7777-9999--||
E|-00000000----------44444444-5555-7777--||

Guitar 2 2:41
E|-----------------||
B|-----------------||
G|-----------------||
D|-2~---------222~-||
A|-2~---------222~-||
E|-0~---------000~-||

Guitar 1 play intro part again at 2:50

Guitar 2 3:00
E|---------------------------------------||
B|---------------------------------------||
G|----------66666666---------------------|| x 4
D|-22222222-66666666-66666666-7777-9999--||
A|-22222222-44444444-66666666-7777-9999--||
E|-00000000----------44444444-5555-7777--||


Guitar 3 (perhaps layered in the studio?) 3:10
E|-------------------------------------------||
B|-5555-7777-5555-5h777-5555-7777-4444-4h555-||
G|-------------------------------------------|| x 2
D|-------------------------------------------||
A|-------------------------------------------||
E|-------------------------------------------||
   .... .... ....       .... .... ....

Guitar 1 3:20
E|---0---0---0------||
B|---0---0---0------||
G|-----6------------||
D|-2---6---6---7~---||
A|-2---4---6---7~---||
E|-0-------4---5~---||
            

comments powered by Disqus
↑ Back to top | Fall Out Boy Tabs for Tell That Mick He Just Made My List Of Things To Do Today. Lyrics for acoustic guitar and electric guitar. Tablatures and chords are parodies/interpretations of the original songs. You may use it for private study, scholarship, research or language learning purposes only