>
 >
Take Over The Breaks Over

Take Over The Breaks Over Bass Tabs

Fall Out Boy - Take Over The Breaks Over chords, tabs, tablatures, lyrics

Guitar lessons | Add/correct | Request | Top 50 tabs Artists:  A B C D E F G H I J K L M N O P Q R S T U V W X Y Z 0-9

Take Over The Breaks Over Bass Tabs – Fall Out Boy

CD, Sheet music, Poster

Do you like Take Over The Breaks Over? Share with your friends now
Bass TabsChordsChords v2TabsTabs v2Tabs v3Tabs v4Ukulele
|Guitar Intro|

Verse x2
G|-----------------------------------|
D|-----------------------------------|
A|-44444444------------------22222-3-|
E|----------44444-3-22222222---------|

Pre-Chorus
G|--------------------------------------------------------------------|
D|--------------------------------------------------------------------|
A|--------------------------44444-2-------------------------4444-22-4-|
E|-55555555-77777-5-4444444---------5555555-77777-5-4444444-----------|

Pre-Verse x4
G|---------------------------------|
D|---------------------------------|
A|-4-4-4-4-----------------22222-3-|
E|---------44444-3-2-2-2-2---------|

Verse x2

Pre-Chorus
G|----------------------------------------------------------------|
D|----------------------------------------------------------------|
A|--------------------------44444-2-------------------------4444x-|
E|-55555555-77777-5-4444444---------5555555-77777-5-4444444-------|

Chorus Pt. 1
G|----------------------------------------|
D|----------------------------------------|
A|-----------------------4444444-22222222-|
E|-0-00~-7-77~-7-4-5-55~------------------|

Chorus Pt. 2
G|---------------------------------------------------------------------|
D|---------------------------------------------------------------------|
A|---------------------------------------------------44444444-22222222-|
E|-0000000000000000-7777777777777-4-5555555555555555-------------------|

|Pause|

Solo x4
G|-----------------------------------|
D|-----------------------------------|
A|---------------------------44444-2-|
E|-55555555-77777-5-44444444---------|

|Pause|

Final Choruses
G|--------------------------------------|
D|--------------------------------------|
A|---------------------4444444-22222222-|
E|-0-00~-7-77~-4-5-55~------------------|

G|--------------------------------------------------|
D|--------------------------------------------------|
A|------------------------------------4-44-42-22-22-|
E|-0-00-00-00-7-77-77-77-4-5-55-55-55---------------|

G|---------------------------------------------------------------------|
D|---------------------------------------------------------------------|
A|---------------------------------------------------44444444-22222222-|
E|-0000000000000000-7777777777777-4-5555555555555555-------------------|





Comments


Popular Fall Out Boy tabs & chords
Alpha Dog Bass Tabs
27 1 Chords
Americas Suitehearts 4 Chords
Fame Infamy 1 Chords
Get Busy Living Or Get Busy Dying 3 Chords
Ive Got A Dark Alley And A Bad Idea That Says You Should Shut Your Mouth Summer Song Chords
Drugged Out Tabs
Im Like A Lawyer With The Way Im Always Trying To Get You Off Me And You 1 Tabs
Mr Brightside Tabs
Tell That Mick He Just Made My List Of Things To Do Today 1 Tabs


Song lyrics



↑ Back to top | Tablatures and chords are parodies/interpretations of the original songs. You may use it for private study, scholarship, research or language learning purposes only
© 2014 AZChords.com Contact us | Privacy policy | DMCA | Add/correct tabs | Request tabs | Top 50 tabs