» » »

Fall Out Boy, Second Emo Tabs (ver.1)

Artists:  A B C D E F G H I J K L M N O P Q R S T U V W X Y Z # 

Second Emo Tabs (ver.1)

Fall Out Boy Tabs
Rating:
0/5 (0 votes)
Second Emo lessons Tabs too difficult? Try these video lessons and learn fast
                tuning: normal

riff 1:
E--------------------|
B--------------------|
G--------------------|
D--------------------|
A-5-55-9-99-7-77-999-|
E-3-33-7-77----------|  x's 4

Riff 2:   Part A                       B                       C
E-----------------------------|---------------------------|----------------------|
B-----------------------------|---------------------------|----------------------|
G-----------------------------|---------------------------|----------------------|
D-----------------------------|---------------------------|----------------------|
A-7-77-5-55-7-77-3-4-5--------|-7-77-7-77-5-55-5-55-------|--7-77-7-77-9-99-9-99-|
E--------------------- x's 4--|-------------------- x's 3-|----------------------|

Riff 3:
E--------------------------------------------------------------------------------|
B--------------------------------------------------------------------------------|
G--------------------------------------------------------------------------------|
D-7-777-----------7-777----------------------------------------------------------|
A-5-555-7-77-9-99-5-555-7-777-1010101010-9-99-7-77-1212121212-10-1010-8-88-------|
E-----------------------5-555--------------------------------------------- x's 3-|

E---------------------------------------------------|
B---------------------------------------------------|
G---------------------------------------------------|
D-7-777-----------7-777-----------------------------|
A-5-555-7-77-9-99-5-555-7-777--------------5/777777-|
E-----------------------5-555--000-3-3-3-3-3/555555-|
pm                             ... . . . .

Riff 2: Part B , Part C

Riff 3

Riff 2: Part B , Part C

Riff 4:
E-15-14-10 x's 7--15-14-15-17--------------------------------------------------------|
B------------------------------------------------------------------------------------|
G------------------------------------------------------------------------------------|
D-------------------------------7-77-7-77--------------------------------------------|
A-------------------------------5-55-5-55-9-99-9-11-12--7-77-7-77-7-77-7-9-10--------|
E-------------------------------------------------------5-55-5-55------------  x's 4-|

Riff 5:
E--------------------------|
B--------------------------|
G--------------------------|
D--------------------------|
A-7-77-9-99-7-77-555-------|
E-5-55-7-77-5-55-333 x's 4-|

Outro:  Guitar 1                  Guitar 2
E----------------------|--------------------------------|
B----------------------|--------------------------------|
G----------------------|--------------------------------|
D----------7--------7--|--------------------------------|
A-7--9--11-5--7--9--5--|--5-777-5--12-10-9--7--10-9-7-5-|
E-5--7--9-----5--7-----|--------------------------------|
            
Submit corrections

comments powered by Disqus
↑ Back to top | Fall Out Boy Tabs for Second Emo. Lyrics for acoustic guitar and electric guitar. Tablatures and chords are parodies/interpretations of the original songs. You may use it for private study, scholarship, research or language learning purposes only