» » »

Fall Out Boy, Pretty In Punk Tabs (ver.1)

Artists:  A B C D E F G H I J K L M N O P Q R S T U V W X Y Z # 

Pretty In Punk Tabs (ver.1)

Fall Out Boy Tabs
 Rating:
4/5 (4 votes)
Pretty In Punk lessons Tabs too difficult? Try these video lessons and learn fast
1
                
Tuning: normal

Riff 1:
E-----------------------------------------------------------------
B-----------------------------------------------------------------
G-----------------------------------------------------------------
D-----------7----6-4----8-6---------------------------------------
A----5-4------4------6--------------777777-6-5-555555-4-3--------7
E-33-----5----------------- x's 2---555555-4-3-333333-2-1 x's 4--5
                                                                                                     
Part A
Riff 2:                                              
Sounds like riff 1 is played under
E--------------------------------------------------------------------------------------------|
-------------------------
B--------------------------------------------------------------------------------------------|
-------------------------
G--------------------------------------------------------------------------------------------|
-------------------------
D-----------444--777------------444--777777--------------------------------------------------|
-------------------------
A-777--444--222--555--777--444--222--555555---99999999-1212121212-7777777-5555555-999999-12--|
-77777-55555-99999-111111
E-555--222------------555--222----------------77777777-1010101010-5555555-3333333-777777-10--|
-55555-33333-77777-99999- x's 4

Riff 3:
E--------------------------------
B--------------------------------
G-7-6------7-6-7-9--------7-6----
D-----7-6---------------------7-6
A----------------- x's 3---------
E--------------------------------

Riff 2

Riff 4:
E-------------------------------------------------------------------------------------
B-------------------------------------------------------------------------------------
G-------------------------------------------------------------------------------------
D----7----7----7----7----7----7----7----7----------14141414-16161616-19191919-17171717
A-55---55---44---44---33---33---22---22-- x's 4----12121212-14141414-17171717-15151515 x's 2
E-------------------------------------------------------------------------------------
pm..   ..   ..   ..   ..   ..   ..   ..

Riff 5:
E-------------------------------------------------------------------------------------------
B-------------------------------------------------------------------------------------------
G-------------------------------------------------------------------------------------------
D------9999-1111-9999-1111-9-------9999-1111-9999-1111-9------9999-1111-9999-1111-9---------
A-7777-----------------------5555------------------------4444------------------------77-9999
E-5555-----------------------3333------------------------2222------------------------55-7777 x's 2

Riff 2: Part A x's 8

Riff 6:
E------------------------------------
B------------------------------------
G------------------------------------
D-66666-444444-888888-999999--------6
A-44444-222222-666666-777777 x's 4--4
E------------------------------------
            
Submit corrections

comments powered by Disqus
↑ Back to top | Fall Out Boy Tabs for Pretty In Punk. Lyrics for acoustic guitar and electric guitar. 1 Tablatures and chords are parodies/interpretations of the original songs. You may use it for private study, scholarship, research or language learning purposes only