» » »

Of All The Gin Joints In All The World Bass tabs (ver.2)

Artists:  A B C D E F G H I J K L M N O P Q R S T U V W X Y Z # 

Of All The Gin Joints In All The World Bass tabs (ver.2)

Fall Out Boy
Rating:
0/5 (0 votes)

Tabs too difficult? Try these video lessons and learn fast.
                Of all the gin joints in all the world- bass tab


Drop D

/ = Slide up
\ = Slide down
H = Hammer on
P = Pull off

Bass comes in after one bar of the guitar line


Intro
G|---------------------------------------------------|
D|---------------------------------------------------| X2
A|--------------0-0-0-0-3-3---------------0-0-0-0-5P3|
D|3-3-3-5-5-5-5-------------3-3-3-5-5-5-5------------|

Verse 1
"You only heard..."
G|-----------------------------------------------------------------------|
D|-----------------------------------------------------------------------|
A|------------------------0----------------------------------------------|
D|2-2-3-3-2-2-3-3-2-2-3-3---5-2-2-2-2-2-2-2-2-3-3-3-3-3-3-3-3-3-3-3-3-3-3|
"Were making out..."
G|-----------------------------------------------------------------------|
D|-----------------------------------------------------------------------|
A|------------------------0----------------------------------------------|
D|2-2-3-3-2-2-3-3-2-2-3-3---5-2-2-2-2-2-2-2-2-3-3-3-3-3-3-3-3-3-3-3-3-3-3|

Chorus
"Turn off the..."
G|---------------------------------------|
D|---------------------------------------|
A|3-3-----0-0-0-0-0-0-0-0-0-0-0-0-0-0-0--|
D|----5-5-------------------------------5|

"Cause all of..."
G|---------------------------------------|
D|---------------------------------------|
A|3-3------------------------------------|
D|----5-5-3-3-3-3-3-3-3-3-3-3-3-3-3-3-3-3|

"And oh, the..."
G|-----------------------------------------------------------|
D|-----------------------------------------------------------|
A|3-3-3-3-3-3-3---------------0-0-0-0-0-0-0-0-0-0-0-0-0-0-0--|
D|--------------5-5-5-5-5-5-5-------------------------------5|

"Like i'll never..."
G|-----------------------------|
D|-----------------------------|
A|3-3-3-3-3-3-3----------------|
D|--------------5-5-5-5-5-5-5-5|

Verse 2
G|---------------------------------------------------|
D|---------------------------------------------------| X2
A|--------------0-0-0-0-3-3---------------0-0-0-0-5P3|
D|3-3-3-5-5-5-5-------------3-3-3-5-5-5-5------------|

"You only hold..."
G|----------------------------------------------------------------------------|
D|----------------------------------------------------------------------------|
A|------------------------0-------0-------------------------------------------|
D|2-2-3-3-2-2-3-3-2-2-3-3---5-2-3---5-2-3-3-3-3-3-3-3-3-3-3-3-3-3-3-3-3--3-2-1|

Chorus
"Turn off the..."
G|---------------------------------------|
D|---------------------------------------|
A|3-3-----0-0-0-0-0-0-0-0-0-0-0-0-0-0-0--|
D|----5-5-------------------------------5|

"Cause all of..."
G|---------------------------------------|
D|---------------------------------------|
A|3-3------------------------------------|
D|----5-5-3-3-3-3-3-3-3-3-3-3-3-3-3-3-3-3|

"And oh, the..."
G|-----------------------------------------------------------|
D|-----------------------------------------------------------|
A|3-3-3-3-3-3-3---------------0-0-0-0-0-0-0-0-0-0-0-0-0-0-0--|
D|--------------5-5-5-5-5-5-5-------------------------------5|

"Like i'll never..."
G|-----------------------------|
D|-----------------------------|
A|3-3-3-3-3-3-3----------------|
D|--------------5-5-5-5-5-5-5-5|

Bridge
G|---------------|
D|---------------| x3
A|0-0-----3-3----|
D|----3-3-----5-5|

G|---------------------------------------------------------------|
D|---------------------------------------------------------------|
A|---------------------------------------------------------------|
D|3-3-3-3-3-3-3-3-3-3-3-3-3-3-3-3-3-3-3-3-3-3-3-3-3-3-3-3-3-3-3-3|

"I'm not trying!"
G|-------------------------------------------------|
D|-------------------------------------------------|
A|7-7-7-7-7-7-7-7-8-8-8-8-8-8-8-8-8-8-8-8-8-8-8-8-8|
D|-------------------------------------------------|

Outro
"Turn off the..."
G|---------------------------------------|
D|---------------------------------------|
A|3-3-----0-0-0-0-0-0-0-0-0-0-0-0-0-0-0--|
D|--------------------------------------5|

"Cause all of..."
G|---------------------------------------|
D|---------------------------------------|
A|3-3------------------------------------|
D|----5-5-3-3-3-3-3-3-3-3-3-3-3-3-3-3-3-3|

"And oh, the..."
G|---------------------------------------|
D|---------------------------------------|
A|3-3-----0-0-0-0-0-0-0-0-0-0-0-0-0-0-0--|
D|--------------------------------------5|

"Like ill never..."
G|-----------------------------|
D|-----------------------------|
A|3-3-3-3-3-3-3----------------|
D|--------------5-5-5-5-5-5-5-5|

G|---------------|
D|---------------| x3
A|0-0-----3-3----|
D|----3-3-----5-5|

G|---------------------------------------------------------------------|
D|---------------------------------------------------------------------|
A|------------------------------------------------------------------3--|
D|3-3-3-3-3-3-3-3-3-3-3-3-3-3-3-3-3-3-3-3-3-3-3-3-3-3-3-3-3-3-3-3-3---5|

Lyrics

You only hold me up like this
Cause you don't know who I really am
Sometimes I just want to know what it's like to be you
We're making out inside crashed cars
We're sleeping through all our memories
I used to waste my time dreaming of being alive 
(now I only waste it dreaming of you)

Turn off the lights and turn off the shyness
Cause all of our moves make up for the silence
And oh, the way your makeup stains my pillowcase
Like I'll never be the same

You only hold me up like this
Cause you don't know who I really am
I used to waste my time on
Waste my time on
Waste my time dreaming of being alive 
(now I only waste it dreaming of you)

Turn off the lights and turn off the shyness
Cause all of our moves make up for the silence
And oh, the way your makeup stains my pillowcase
Like I'll never be the same

I've got headaches and bad luck but they couldn't touch you, no
I've got headaches and bad luck but they couldn't touch you, no
I'm not trying
You only hold me up like this

Turn off the lights and turn off the shyness
Cause all of our moves make up for the silence
And oh, the way your makeup stains
Like I'll never be the same
            
Tabs too difficult? Try these video lessons and learn fast.


comments powered by Disqus
↑ Back to top | Tablatures and chords are parodies/interpretations of the original songs. You may use it for private study, scholarship, research or language learning purposes only