» » »

Fall Out Boy, Of All The Gin Joints In All The World Tabs (ver.1)

Artists:  A B C D E F G H I J K L M N O P Q R S T U V W X Y Z # 

Of All The Gin Joints In All The World Tabs (ver.1)

Fall Out Boy Tabs
Rating:
0/5 (0 votes)
Of All The Gin Joints In All The World lessons Tabs too difficult? Try these video lessons and learn fast
                Track #: 2

Intro:
(0:00)
e|-----------------------------------|
B|-----------------------------------|
G|-----------------------------------|
D|-3-3-3-3--5-5-5-5--7-7-7-7--10-10\-|
A|-3-3-3-3--5-5-5-5--7-7-7-7--10-10\-|
D|-3-3-3-3--5-5-5-5--7-7-7-7--10-10\-|

e|-------------------------------------|
B|-------------------------------------|
G|-------------------------------------|
D|-3-3-3-3--5-5-5-5--7-7-7-7--0-0------|
A|-3-3-3-3--5-5-5-5--7-7-7-7--0-0--5p3-|
D|-3-3-3-3--5-5-5-5--7-7-7-7--0-0------|
PM                            . .


Verse:
Guitar 1:
(0:16)
e|-----------------|-----------------|
B|-----------------|-----------------|
G|-5-5-5-5-5-5-5-5-|-5-5-5-5-5-5-5-5-|
D|-----------------|-----------------|
A|-3-3-3-3-3-3-3-3-|-3-3-3-3-3-3-3-3-|
D|-----------------|-----------------|

Guitar 2:
(0:19)
e|---------|---------|---------|------------------------------|
B|---------|---------|---------|------------------------------|
G|---------|---------|---------|------------------------------|
D|-2-2-3-3-|-2-2-3-3-|-2-2-3-3-|-7-5--2-2-2-2-3-3-3-3-3-3-3-3-| x2
A|-2-2-3-3-|-2-2-3-3-|-2-2-3-3-|-7-5--2-2-2-2-3-3-3-3-3-3-3-3-|
D|-2-2-3-3-|-2-2-3-3-|-2-2-3-3-|-7-5--2-2-2-2-3-3-3-3-3-3-3-3-|


Chorus:
(0:42)
e|--------------------------------------|
B|--------------------------------------|
G|-5-5--5-------------------------------|
D|-5-5--5-5-5--5-7p5-7--7p5-7--7-7-5-5--|
A|-3-3--3-5-5--5-7p5-7--7p5-7--7-7-5-5--|
D|--------5-5--5-7p5-7--7p5-7--7-7-5-5--|

e|--------------------------------------|
B|--------------------------------------|
G|-5-5--5-------------------------------|
D|-5-5--5--5-5--5--3-3--3-3-3-3-3-3-3-3-|
A|-3-3--3--5-5--5--3-3--3-3-3-3-3-3-3-3-|
D|---------5-5--5--3-3--3-3-3-3-3-3-3-3-|
PM                      ...............

e|--------------------------------------------------------|
B|--------------------------------------------------------|
G|-5-5-5-5-5-5-5-5----------------------------------------|
D|-5-5-5-5-5-5-5-5-5-5-5-5-5-5-5-5--7p5-7--7p5-7--7-7-5-5-|
A|-3-3-3-3-3-3-3-3-5-5-5-5-5-5-5-5--7p5-7--7p5-7--7-7-5-5-|
D|-----------------5-5-5-5-5-5-5-5--7p5-7--7p5-7--7-7-5-5-|

e|---------------------------------|
B|---------------------------------|
G|-5-5-5-5-5-5-5-5-----------------|
D|-5-5-5-5-5-5-5-5-5-5-5-5-5-5-5-5-|
A|-3-3-3-3-3-3-3-3-5-5-5-5-5-5-5-5-|
D|-----------------5-5-5-5-5-5-5-5-|


Back to Intro:
(1:02)
e|-----------------------------------|
B|-----------------------------------|
G|-----------------------------------|
D|-3-3-3-3--5-5-5-5--7-7-7-7--10-10\-|
A|-3-3-3-3--5-5-5-5--7-7-7-7--10-10\-|
D|-3-3-3-3--5-5-5-5--7-7-7-7--10-10\-|

e|-------------------------------------|
B|-------------------------------------|
G|-------------------------------------|
D|-3-3-3-3--5-5-5-5--7-7-7-7--0-0------|
A|-3-3-3-3--5-5-5-5--7-7-7-7--0-0--5p3-|
D|-3-3-3-3--5-5-5-5--7-7-7-7--0-0------|
PM                            . .


Verse 2:
Guitar 1:
(1:12)
e|-----------------|-----------------|
B|-----------------|-----------------|
G|-5-5-5-5-5-5-5-5-|-5-5-5-5-5-5-5-5-|
D|-----------------|-----------------|
A|-3-3-3-3-3-3-3-3-|-3-3-3-3-3-3-3-3-|
D|-----------------|-----------------|

Guitar 2:
(1:15)
e|---------|---------|---------|----------|-------------|---------------|
B|---------|---------|---------|----------|-------------|---------------|
G|---------|---------|---------|----------|-------------|---------------|
D|-2-2-3-3-|-2-2-3-3-|-2-2-3-3-|-7-5--2~--|-3--7-5--2~--|-3--7-5--2~--3-|
A|-2-2-3-3-|-2-2-3-3-|-2-2-3-3-|-7-5--2~--|-3--7-5--2~--|-3--7-5--2~--3-|
D|-2-2-3-3-|-2-2-3-3-|-2-2-3-3-|-7-5--2~--|-3--7-5--2~--|-3--7-5--2~--3-|

Guitar 1:
(1:31)
e|-------------------------------------------|-------|
B|-------------------------------------------|-------|
G|-5-5-5-5-7-7-7-7-9-9-9-9-10-10-10-10-------|-------|
D|--------------------------------------10\--|-3-3-3-|
A|-3-3-3-3-5-5-5-5-7-7-7-7-8--8--8--8---10\--|-3-3-3-|
D|--------------------------------------10\--|-3-3-3-|
PM                                             . . .


Chorus:
(1:36)
e|--------------------------------------|
B|--------------------------------------|
G|-5-5--5-------------------------------|
D|-5-5--5-5-5--5-7p5-7--7p5-7--7-7-5-5--|
A|-3-3--3-5-5--5-7p5-7--7p5-7--7-7-5-5--|
D|--------5-5--5-7p5-7--7p5-7--7-7-5-5--|

e|--------------------------------------|
B|--------------------------------------|
G|-5-5--5-------------------------------|
D|-5-5--5--5-5--5--3-3--3-3-3-3-3-3-3-3-|
A|-3-3--3--5-5--5--3-3--3-3-3-3-3-3-3-3-|
D|---------5-5--5--3-3--3-3-3-3-3-3-3-3-|
PM                      ...............

e|--------------------------------------------------------|
B|--------------------------------------------------------|
G|-5-5-5-5-5-5-5-5----------------------------------------|
D|-5-5-5-5-5-5-5-5-5-5-5-5-5-5-5-5--7p5-7--7p5-7--7-7-5-5-|
A|-3-3-3-3-3-3-3-3-5-5-5-5-5-5-5-5--7p5-7--7p5-7--7-7-5-5-|
D|-----------------5-5-5-5-5-5-5-5--7p5-7--7p5-7--7-7-5-5-|

e|---------------------------------|
B|---------------------------------|
G|-5-5-5-5-5-5-5-5-----------------|
D|-5-5-5-5-5-5-5-5-5-5-5-5-5-5-5-5-|
A|-3-3-3-3-3-3-3-3-5-5-5-5-5-5-5-5-|
D|-----------------5-5-5-5-5-5-5-5-|


Bridge:
(1:55)
e|------------|
B|------------|
G|-------5----|
D|-7--3--5--5-| x3
A|-7--3--3--5-|
D|-7--3-----5-|

(2:04)
e|-------------------------------------------|
B|-------------------------------------------|
G|-5-5-5-5-5-5-5-5-5-5-5-5-7-9-9-9-9-9-9-9-9-|
D|-------------------------------------------|
A|-3-3-3-3-3-3-3-3-3-3-3-3-5-7-7-7-7-7-7-7-7-|
D|-------------------------------------------|

(2:10) *Improvise along these lines*
e|-------------------------------------------|
B|-------------------------------------------|
G|-------------------------------------------|
D|---10-----10---10---10---10---10---10---10-|
A|-7------7----7----7----8----8----8----8----|
D|-----10------------------------------------|

e|---------------------------------------------|
B|---------------------------------------------|
G|---------------------------------------------|
D|----10----10----10----10---10---10---10---10-|
A|-------------------------8----8----8-----8---|
D|-10----10----10----10------------------------|

e|-------------------------------------------|
B|-------------------------------------------|
G|-------------------------------------------|
D|---10-----10---10---10---10---10---10---10-|
A|-7------7----7----7----8----8----8----8----|
D|-----10------------------------------------|

e|---------------------------------------------|
B|---------------------------------------------|
G|---------------------------------------------|
D|----10----10----10----10---10---10---10---10-|
A|-------------------------8----8----8-----8---|
D|-10----10----10----10------------------------|

(2:20)
e|-----------------------------------------|
B|-----------------------------------------|
G|-9-9-9-9-9-9-9-9-10-10-10-10-10-10-10-10-|
D|-9-9-9-9-9-9-9-9-10-10-10-10-10-10-10-10-|
A|-7-7-7-7-7-7-7-7-8--8--8--8--8--8--8--8--|
D|-----------------------------------------|


Chorus:
(2:27)
e|-----------------------------------------|
B|-----------------------------------------|
G|-5-5--5----------------------------------|
D|-5-5--5-5-5-5-5-5-7p5-7--7p5-7--7-7-5-5--|
A|-3-3--3-5-5-5-5-5-7p5-7--7p5-7--7-7-5-5--|
D|--------5-5-5-5-5-7p5-7--7p5-7--7-7-5-5--|
PM . .

e|--------------------------------------|
B|--------------------------------------|
G|-5-5--5-------------------------------|
D|-5-5--5--5-5--5--3-3--3-3-3-3-3-3-3-3-|
A|-3-3--3--5-5--5--3-3--3-3-3-3-3-3-3-3-|
D|---------5-5--5--3-3--3-3-3-3-3-3-3-3-|
PM                      ...............

e|--------------------------------------------------------|
B|--------------------------------------------------------|
G|-5-5-5-5-5-5-5-5----------------------------------------|
D|-5-5-5-5-5-5-5-5-5-5-5-5-5-5-5-5--7p5-7--7p5-7--7-7-5-5-|
A|-3-3-3-3-3-3-3-3-5-5-5-5-5-5-5-5--7p5-7--7p5-7--7-7-5-5-|
D|-----------------5-5-5-5-5-5-5-5--7p5-7--7p5-7--7-7-5-5-|

e|---------------------------------|
B|---------------------------------|
G|-5-5-5-5-5-5-5-5-----------------|
D|-5-5-5-5-5-5-5-5-5-5-5-5-5-5-5-5-|
A|-3-3-3-3-3-3-3-3-5-5-5-5-5-5-5-5-|
D|-----------------5-5-5-5-5-5-5-5-|


Outro:
(2:46)
e|------------|
B|------------|
G|-------5----|
D|-7--3--5--5-| x3
A|-7--3--3--5-|
D|-7--3-----5-|

(2:55)
e|-----------------------------------------------------|
B|-----------------------------------------------------|
G|-5-5-5-5-7-7-7-7-9-9-9-9-10-10-10-10-9-9-9-9-9-9-9-9-|
D|-----------------------------------------------------|
A|-3-3-3-3-5-5-5-5-7-7-7-7-8--8--8--8--7-7-7-7-7-7-7-7-|
D|-----------------------------------------------------|

(3:01)
e|-------------|
B|-------------|
G|-5--5-5---5~-|
D|-5--5-5-3-5~-|
A|-3--3-3-3-3~-|
D|--------3----|

Questions? comments? requests?: Email
            

comments powered by Disqus
↑ Back to top | Fall Out Boy Tabs for Of All The Gin Joints In All The World. Lyrics for acoustic guitar and electric guitar. Tablatures and chords are parodies/interpretations of the original songs. You may use it for private study, scholarship, research or language learning purposes only