» » »

Fall Out Boy, Ive Got All This Ringing In My Ears And None On My Fingers Tabs (ver.1)

Artists:  A B C D E F G H I J K L M N O P Q R S T U V W X Y Z # 

Ive Got All This Ringing In My Ears And None On My Fingers Tabs (ver.1)

Fall Out Boy Tabs
 Rating:
4/5 (4 votes)
Ive Got All This Ringing In My Ears And None On My Fingers lessons Tabs too difficult? Try these video lessons and learn fast
                I'VE GOT ALL THIS RINGING IN MY EARS AND NONE ON MY FINGERS- Fall Out Boy


/= slide up
\= slide down
h= hammer-on
p= pull-off
~= vibrato
x= mute note

Standard tuning for both guitars

Piano chords used:
  G#m  F# Fm6  E   B
e|-4-|-2-|-1-|-0-|-2-|
B|-4-|-2-|-1-|-0-|-4-|
G|-4-|-3-|-1-|-1-|-4-|
D|-6-|-4-|-3-|-2-|-4-|
A|-6-|-4-|-4-|-2-|-2-|
E|-4-|-2-|-1-|-0-|—–-|

The piano part during the second part of the intro and the verses follows this pattern:

e|—–-4—–-4—–-4-42-|—–-1—–-1—–-1-10-|—–-0—–-0----2—–-2|4444444444444---|
B|—–-4—–-4—–-4-42-|—–-1—–-1—–-1-10-|—–-0—–-0----2—–-2|4444444444444---|
G|—–-4—–-4—–-4-43-|—–-1—–-1—–-1-11-|—–-1—–-1----3—–-3|4444444444444---|
D|—–-6—–-6—–-6-64-|—–-3—–-3—–-3-32-|—–-2—–-2----4——-4|6666666666666---|
A|—–-6—–-6—–-6-64-|—–-4—–-4—–-4-42-|---2—–-2—–--4—–-4|6666666666666---|
E|4424-424-424-42-|1101-101-101-10-|0020-020-2242-242|4444444444444---|

Intro

Piano plays G#m...

Guitar 2
  G#m         F#   Fm6              E       F#       G#m
e|----------------|----------------|----------------|----------------|
B|----------------|----------------|----------------|----------------|
G|----------------|----------------|----------------|----------------|
D|—–-6~/-6~/-6~/--|—–-6~/-6~/-6~/--|----------------|----------------|
A|----------------|----------------|----------------|----------------|
E|----------------|----------------|----------------|----------------|

Verse 1

Guitar 2        
  G#m           F#   Fm6                           E       F#      G#m F#
e|------------------|-----------------------------|---------------|--------|
B|------------------|-----------------------------|---------------|--------|
G|88-888-888-8881111|1010-101010-101010-1010101313|99-999-988-888-|88~-6~–-|
D|xx-xxx-xxx-xxx x x| x x- x x x- x x x- x x x x x|xx-xxx-xxx-xxx-|xx–-x—–-|
A|66-666-666-666 9 9| 8 8- 8 8 8- 8 8 8- 8 8 81111|77-777-766-666-|66~–4~--|
E|------------------|-----------------------------|---------------|--------|

Chorus

Guitar 1
e|----------------|----------------|----------------|
B|----------------|----------------|----------------|
G|44444444--------|44444444--------|----------------|
D|4444444422222222|4444444466666666|4444444422222222|
A|2222222222222222|2222222266666666|4444444422222222|
E|--------00000000|--------44444444|2222222200000000|

Guitar 2
e|—–----7~--–--7—–-----7~–----7-|
B|–---7----7--–------7----7-----|
G|--8--------8-----8--------8---|
D|9--------------9--------------|x3
A|------------------------------|
E|------------------------------|

Bridge

The notes in parentheses are the harmony notes.

Guitar 2
  F#           G#m  F#       E
e|--------------------------|------------------|
B|--------------------------|-------(4~5~7~12~)|
G|666666h8p6---666666h8p6—–-|--------4~6~8~11~-|
D|----------9p6----------9p6|9~—--(9)----------|
A|--------------------------|------9-----------|
E|--------------------------|------------------|
(continued)
  F#           G#m  F#       E
e|--------------------------|----------------|
B|--------------------------|----------------|
G|666666h8p6---666666h8p6—–-|----------------|
D|----------9p6----------9p6|9~--------------|
A|--------------------------|----------------|
E|--------------------------|----------------|

Verse 2

Guitar 1 (at “I could close my eyes...”)
e|----------------|
B|----------------|
G|----------------|
D|--------44444444|Build up strum and volume
A|--------44444444|
E|--------22222222|

Chorus

Guitar 1
e|----------------|----------------|----------------|
B|----------------|----------------|----------------|
G|44444444--------|44444444--------|----------------|
D|4444444422222222|4444444466666666|4444444422222222|
A|2222222222222222|2222222266666666|4444444422222222|
E|--------00000000|--------44444444|2222222200000000|

Guitar 2
e|—–----7~--–--7—–-----7~–----7-|
B|–---7----7--–------7----7-----|
G|--8--------8-----8--------8---|
D|9--------------9--------------|x3
A|------------------------------|
E|------------------------------|

Bridge

The notes in parentheses are the harmony notes.

Guitar 2
  F#           G#m  F#       E
e|--------------------------|------------------|
B|--------------------------|-------(4~5~7~12~)|
G|666666h8p6---666666h8p6—–-|--------4~6~8~11~-|
D|----------9p6----------9p6|9~—--(9)----------|
A|--------------------------|------9-----------|
E|--------------------------|------------------|
(continued)
  F#           G#m  F#       E
e|--------------------------|----------------|
B|--------------------------|----------------|
G|666666h8p6---666666h8p6—–-|----------------|
D|----------9p6----------9p6|9~-9~-9~9~------|
A|--------------------------|----------------|
E|--------------------------|----------------|
(continued)
  B              E               B              G#m
e|—–----7~--–--7—–-----7~–----7-|—–----7~--–--7—–-----7~–----7-|
B|–---7----7--–------7----7-----|–---7----7--–------7----7-----|
G|--8--------8-----8--------8---|--8--------8-----8--------8---|
D|9--------------9--------------|9--------------9--------------|
A|------------------------------|------------------------------|
E|------------------------------|------------------------------|

Chorus

Guitar 1
e|----------------|----------------|----------------|
B|----------------|----------------|----------------|
G|44444444--------|44444444--------|----------------|
D|4444444422222222|4444444466666666|4444444422222222|
A|2222222222222222|2222222266666666|4444444422222222|
E|--------00000000|--------44444444|2222222200000000|

Guitar 2
e|—–----7~--–--7—–-----7~–----7-|
B|–---7----7--–------7----7-----|
G|--8--------8-----8--------8---|
D|9--------------9--------------|x3
A|------------------------------|
E|------------------------------|

Outro

Guitar 1
e|----------------|----------------|----------------|-----------------|
B|----------------|----------------|----------------|-----------------|
G|44444444--------|44444444--------|44444444--------|-----------------|
D|4444444422222222|4444444422222222|4444444422222222|2~---------------|
A|2222222222222222|2222222222222222|2222222222222222|2~---------------|
E|--------00000000|--------00000000|--------00000000|0~---------------|

Guitar 2
e|—–----7~--–--7—–-----7~–----7-|
B|–---7----7--–------7----7-----|
G|--8--------8-----8--------8---|
D|9--------------9--------------|x3
A|------------------------------|
E|------------------------------|
(continued)
e|----------------|
B|----------------|
G|----------------|
D|9~--------------|
A|9~–-9~–-7~------|
E|7~--------------|
            
Submit corrections

comments powered by Disqus
↑ Back to top | Fall Out Boy Tabs for Ive Got All This Ringing In My Ears And None On My Fingers. Lyrics for acoustic guitar and electric guitar. Tablatures and chords are parodies/interpretations of the original songs. You may use it for private study, scholarship, research or language learning purposes only