>
 >
Grenade Jumper

Grenade Jumper Guitar Tabs

Fall Out Boy - Grenade Jumper chords, tabs, tablatures, lyrics

Guitar lessons | Add/correct | Request | Top 50 tabs Artists:  A B C D E F G H I J K L M N O P Q R S T U V W X Y Z 0-9

Grenade Jumper Guitar Tabs – Fall Out Boy

CD, Sheet music, Poster

Do you like Grenade Jumper? Share with your friends now
Bass TabsBass Tabs v2Bass Tabs v3TabsTabs v2
Fall Out Boy
Grenade Jumper #9
Take This to Your Grave
Standard Tuneing


Intro    1x   Guitar 1
|--------------------------------------|
|--------------------------------------|
|--7777777-----------------------------|
|--7777777-777-55555-777-999-444-55555-|
|--5555555-777-55555-777-999-444-55555-|
|----------555-33333-555-777-222-33333-|

Guitar 1   2x
|-------------------------------------------|
|-------------------------------------------|
|--77777------------------------------------|
|--77777-7-55555-7-999-444-55555------------|
|--55555-7-55555-7-999-444-55555------------|
|--------5-33333-5-777-222-33333------------|

Guitar 2  2x
|-----------------------------------------------|
|-----------------------------------------------|
|--9999-11111111-9999-7777-999-111111-9999-7777-|
|--xxxx--x-x-x-x-xxxx-xxxx-xxx--x-x-x-xxxx-xxxx-|
|--7777--9-9-9-9-7777-5555-777--9-9-9-7777-5555-|
|-----------------------------------------------|

Guitar 1                   Guitar 2

|---|-----------|        |-----|-----|-----|
|---|-----------|        |-----|-----|-----|
|---|-----------|        |--7--|-11--|--7--|
|-5-|--5--------|        |--x--|--x--|--x--|
|-5-|--5--------|        |--5--|--9--|--5--|
|-3-|--3--------|        |-----|-----|-----|
     PM over and over      25x   10x   25x

Both Guitars   1x

|-----------------------------------------|
|-----------------------------------------|
|-----------------------------------------|
|-22222-4-55555-7-999-444-55555-22222-4-5-|
|-22222-4-55555-7-999-444-55555-22222-4-5-|
|-00000-2-33333-5-777-222-33333-00000-2-3-|

Both Guitars    "HEY CHRIS"

|-----------------------------------------------------|
|-----------------------------------------------------|
|-7777-111111-999-6666-111111-999-777-111111-999-6666-|
|-xxxx--x-x-x-xxx-xxxx--x-x-x-xxx-xxx--x-x-x-xxx-xxxx-|
|-5555--9-9-9-777-4444--9-9-9-777-555--9-9-9-777-4444-|
|-----------------------------------------------------|

Guitar 1 

|---------------------------------------------|
|---------------------------------------------|
|---------------------------------------------|
|-222-2-555-5-222-2-555-5-222-2-555-5-222-2-5-|
|-222-2-555-5-222-2-555-5-222-2-555-5-222-2-5-|
|-000-0-333-3-000-0-333-3-000-0-333-3-000-0-3-|
  PM~   PM~   PM~   PM~   PM~   PM~   PM~

Guitar 2

|---------------------------------------------------|
|---------------------------------------------------|
|-7777-11111111-7777-11111111-7777-11111111-7777-11-|
|-xxxx--x-x-x-x-xxxx--x-x-x-x-xxxx--x-x-x-x-xxxx--x-|
|-5555--9-9-9-9-5555--9-9-9-9-5555--9-9-9-9-5555--9-|
|---------------------------------------------------|

Guitar 1  2x "theyll say its not worth it"

|--------------------------------------------------------|
|--------------------------------------------------------|
|--------------------------------------------------------|
|-4444444-2222222-4444444-5555555-4444444-2222222-555----|
|-4444444-2222222-4444444-5555555-4444444-2222222-555----|
|-2222222-0000000-2222222-3333333-2222222-0000000-333----|
  ~~~~~~~~~~~~~~~~~~~~~~~PM~~~~~~~~~~~~~~~~~~~~~~

Guitar 2  (second time)

|-----|-----|-----|
|-----|-----|-----|
|--7--|-11--|--7--|
|--x--|--x--|--x--|
|--5--|--9--|--5--|
|-----|-----|-----|
  25x   10x   15x

Both Guitars   1x

|-----------------------------------------|
|-----------------------------------------|
|-----------------------------------------|
|-22222-4-55555-7-999-444-55555-22222-4-5-|
|-22222-4-55555-7-999-444-55555-22222-4-5-|
|-00000-2-33333-5-777-222-33333-00000-2-3-|

Both Guitars  2x   "HEY CHRIS"

|-----------------------------------------------------|
|-----------------------------------------------------|
|-7777-111111-999-6666-111111-999-777-111111-999-6666-|
|-xxxx--x-x-x-xxx-xxxx--x-x-x-xxx-xxx--x-x-x-xxx-xxxx-|
|-5555--9-9-9-777-4444--9-9-9-777-555--9-9-9-777-4444-|
|-----------------------------------------------------|

Guitar 1   7x      Guitar 2   7x

|-------------|    |---------------|
|-------------|    |---------------|
|-------------|    |-7777-11111111-|
|-222-2-555-5-|    |-xxxx--x-x-x-x-|
|-222-2-555-5-|    |-5555--9-9-9-9-|
|-000-0-333-3-|    |---------------|
  PM~   PM~  

Guitar 2

|------------------------|
|------------------------|
|-11---11---11---11---11-|
|--x----x----x----x----x-|
|--9----9----9----9----9-|
|------------------------|

Guitar 1

|-----------------|
|-----------------|
|-----------------|
|-2---------5-----|
|-2-hold----5-----|
|-0---------3-----|

Guitar 1                           Then Guitar 2 goes

|-------------------------------|---------------------|
|-------------------------------|---------------------|
|-------------------------------|---7777777-----------|
|-7--777777777777777--7---------|---xxxxxxx-----------|
|-7--777777777777777--7---------|---5555555-----------|
|-5--555555555555555--5---------|---------------------|
     ~~~~~~~PM~~~~~~ 

Both Guitars  3x   "HEY CHRIS"

|-----------------------------------------------------|
|-----------------------------------------------------|
|-7777-111111-999-6666-111111-999-777-111111-999-6666-|
|-xxxx--x-x-x-xxx-xxxx--x-x-x-xxx-xxx--x-x-x-xxx-xxxx-|
|-5555--9-9-9-777-4444--9-9-9-777-555--9-9-9-777-4444-|
|-----------------------------------------------------|

End

|-----|
|-----|
|-----|
|--7--|
|--7--|
|--5--|

Great band  great song  im sure this is 99% correct ~mark





Comments


Popular Fall Out Boy tabs & chords
Grenade Jumper Bass Tabs
Headfirst Slide Into Coopestown On A Bad Bet 2 Bass Tabs
Hum Hallelujah 2 Bass Tabs
Dance Dance 1 Chords
Grand Theft Autumn 4 Tabs
Music Or The Misery 1 Tabs
The Mighty Fall 2 Tabs
Thriller 4 Tabs
Grand Theft Autumn Where Is Your Boy Ukulele
The Patron Saint Of Liars And Fakes Ukulele


Song lyrics



↑ Back to top | Tablatures and chords are parodies/interpretations of the original songs. You may use it for private study, scholarship, research or language learning purposes only
© 2014 AZChords.com Contact us | Privacy policy | DMCA | Add/correct tabs | Request tabs | Top 50 tabs