» » »

Fall Out Boy, Grand Theft Autumn Tabs (ver.1)

Artists:  A B C D E F G H I J K L M N O P Q R S T U V W X Y Z # 

Grand Theft Autumn Tabs (ver.1)

Fall Out Boy Tabs
 Rating:
4/5 (4 votes)
Grand Theft Autumn lessons Tabs too difficult? Try these video lessons and learn fast
1
                fall out boy - grand theft autumn

Tuning: DADGBe

intro x6
1st verse x1
intro x1
chorus x1
intro x 4
2nd verse x1
chorus x1
solo x1
bridge x4
post bridge chorus x1
last chorus x1

intro   
e|-------------------------------------------------------------------------|
B|-------------------------------------------------------------------------|
G|----6/7777---6/7777----6/777---------------------------------------------|
D|----x-xxxx---x-xxxx----x-xxx---------------------------------------------|
A|----4/5555---4/5555----4/555---------------------------------------------|
D|-------------------------------------------------------------------------|

1st verse
e|-------------------------------------------------------------------------|
B|-------------------------------------------------------------------------|
G|-7--------------7--------------------------------------------------------|
D|-x--7------7----x--7-----7-----------------------------------------------|
A|-5--5---2--5----5--5--2--5-----------------------------------------------|
D|----5---2--5-------5--2--5-----------------------------------------------|

e|-------------------------------------------------------------------------|
B|-------------------------------------------------------------------------|
G|-------------------------------------------------------------------------|
D|-------------------------------------------------------------------------|
A|-55555555--77777777--00000000--44444444---55-55--77-77--00-00------------|
D|-55555555--77777777--00000000--44444444---55-55--77-77--00-00------------|

chorus
e|-------------------------------------------------------------------------|
B|-------------------------------------------------------------------------|
G|-------------------------------------------------------------------------|
D|-------------------------------------------------------------------------|
A|-99-55-00-44-55-77-00-44-55-77--00000000--22222222---5-------------------|
D|-99-55-00-44-55-77-00-44-55-77--00000000--22222222---5-------------------|

2nd verse
e|-------------------------------------------------------------------------|
B|-------------------------------------------------------------------------|
G|-7--------------7--------------------------------------------------------|
D|-x--7------7----x--7-----7-----------------------------------------------|
A|-5--5---2--5----5--5--2--5-----------------------------------------------|
D|----5---2--5-------5--2--5-----------------------------------------------|

e|-------------------------------------------------------------------------|
B|-------------------------------------------------------------------------|
G|-------------------------------------------------------------------------|
D|-------------------------------------------------------------------------|
A|-55555555--77777777--00000000--44444444---55-55--77-77--00-00--4-5/------|
D|-55555555--77777777--00000000--44444444---55-55--77-77--00-00--4-5/------|

solo
e|-------------------------------------------------------------------------|
B|-------------------------------------------------------------------------|
G|-------------------------------------------------------------------------|
D|-------77-7----77-7-------7-7-7---7------77-7----77-7-------77777777-----|
A|--55-5------55------5555-------55---55-5------55-------5555--------------|
D|-------------------------------------------------------------------------|

bridge
e|-------------------------------------------------------------------------|
B|-------------------------------------------------------------------------|
G|-------------------------------------------------------------------------|
D|-------------------------------------------------------------------------|
A|-99999999--77777777--00000000--55555555----------------------------------|
D|-99999999--77777777--00000000--55555555----------------------------------|
 
post bridge chorus
e|-------------------------------------------------------------------------|
B|-------------------------------------------------------------------------|
G|-------------------------------------------------------------------------|
D|-------------------------------------------------------------------------|
A|-99--55--00--44--55--77--5555-7777-00000000-22222222-55555555------------|
D|-99--55--00--44--55--77--5555-7777-00000000-22222222-55555555------------|

last chorus
e|-------------------------------------------------------------------------|
B|-------------------------------------------------------------------------|
G|-------------------------------------------------------------------------|
D|-------------------------------------------------------------------------|
A|-99-55-00-44-55-77-00-44-55-77--00000000--22222222---5----0--------------|
D|-99-55-00-44-55-77-00-44-55-77--00000000--22222222---5----0--------------|


| /  slide up
| \  slide down
| h  hammer-on
| p  pull-off
| ~  vibrato
| +  harmonic
| x  Mute note


Artist Name: Fall Out Boy 
Tab Name: Grand Theft Autumn (Where's Your Boy)


E-------------------------------------------------------------\
B------------------------------------------------------------- \
G--11--9-------------11--9--------------11--9------9--11------  \
D----------12----------------12--12------------12---------12--   \
A---------------12--------------------------------------------    \
E-------------------------------------------------------------     \

E-------------------------------------------------------------         
B-------------------------------------------------------------       played many different speeds throughout.
G----------9--11--9---------9-------------9--11--11--9--------------
D--12--12------------12--------12-----12----------------12----
A------------------------12-----------------------------------
E-------------------------------------------------------------     /

E-------------------------------------------------------------   /
B-------------------------------------------------------------  /
G-----------11--9--------------------------------------------- / 
D------------------12--12-------------------------------------
A--12--10-----------------------------------------------------
E-------------------------------------------------------------

Intro (Distortion) Fool Around With This (the trem parts)
E-------------------------------------------------------------
B-------------------------------------------------------------
G--6/7--------------------------------------------------------
D-------------------------------------------------------------
A--4/5--------------------------------------------------------
E-------------------------------------------------------------

Intro (Distortion, Played During Above)
E-------------------------------------------------------------
B-------------------------------------------------------------
G-------------------------------------------------------------
D--12---9---7-------------------------------------------------
A--12---9---7-------------------------------------------------
E--10---7---5-------------------------------------------------
            
Submit corrections

comments powered by Disqus
↑ Back to top | Fall Out Boy Tabs for Grand Theft Autumn. Lyrics for acoustic guitar and electric guitar. 1 Tablatures and chords are parodies/interpretations of the original songs. You may use it for private study, scholarship, research or language learning purposes only