» » »

Fall Out Boy, Chicago Is So Two Years Ago Tabs (ver.2)

Artists:  A B C D E F G H I J K L M N O P Q R S T U V W X Y Z # 

Chicago Is So Two Years Ago Tabs (ver.2)

Fall Out Boy Tabs
 Rating:
4/5 (4 votes)
Chicago Is So Two Years Ago lessons Tabs too difficult? Try these video lessons and learn fast
1
                Fall out Boy - Chicago is so two years ago

1st guitar
e------------------------------------------------------------------------- 
B------------------------------------------------------------------------- 
G-5-4-------7-9-5--------------------------------------------------------- 
D-----5---5--------------------------------------------------------------  2X
A------------------------------------------------------------------------- 
E------------------------------------------------------------------------- 

2nd guitar
e------------------------------------------------------------------------- 
B------------------------------------------------------------------------- 
G------------------------------------------------------------------------- 
D-------------------------------------------------------------------------  
A-3333555522223333--3333555522223----------------------------------------- 
E-1111333300001111--1111333300001----------------------------------------- 

0:10 both guitars
e------------------------------------------------------------------------- 
B------------------------------------------------------------------------- 
G------------------------------------------------------------------------- 
D---------5--55-------------------------5555------------------------------ 
A--3--33--3--33---5--5555555------2222--3333-33-333333333----------------- 
E--1--11-----------3-3333333------0000-------11-111111111----------------- 
      xx     xx      xxxxxxx                    xxxxxxxxx

0:25
e----------------------------------------------------------------------
B----------------------------------------------------------------------
G----------------------------------------------------------------------
D----------------------------------------------------------------------  2x
A---3333222255557777---------------------------------------------------
E---1111000033335555---------------------------------------------------
    xxxxxxxxxxxxxxxx

0:42
e-----------------------------------------------------------------------
B-----------------------------------------------------------------------
G-----------------------------------------------------------------------
D-----------------------------------------------------------------------
A--7-77-7/3-33-3/3-33-3/5-55-5/7-77-7/5-55-5/3-33-3-33-3-33-------------
E--5 55 5--------1-11-1/3-33-3/5-55-5/3-33-3/1-11-1-11-1-11-------------

e----------------------------------------------------------------------
B----------------------------------------------------------------------
G----------------------------------------------------------------------
D----------------------------------------------------------------------
A--7-77-7/3-33-3/3-33-3/5-55-5-----------------------------------------
E--5 55 5--------1-11-1/3-33-3-----------------------------------------


0:52
e----------------------------------------------------------------------
B----------------------------------------------------------------------
G----------------------------------------------------------------------
D---7777---5555---5555555555-------------------------------------------
A---7777---5555---3333333333-------------------------------------------
E---5555---3333---3333333333-------------------------------------------

1:00
e----------------------------------------------------------------------
B----------------------------------------------------------------------
G-----------------------------------------------------------------------
D---------5--55-------------------------5555---------------------------
A--3--33--3--33---5--5555555------2222--3333-33-333333333----------------
E--1--11----------3--3333333------0000-------11-111111111----------------
      xx     xx      xxxxxxx                    xxxxxxxxx

0:17
e-----------------------------------------------------------------
B-----------------------------------------------------------------
G-----------------------------------------------------------------
D-----------------------------------------------------------------
A---3333222255557777----------------------------------------------
E---1111000033335555----------------------------------------------
    xxxxxxxxxxxxxxxx

1:35
e-------------------------------------------------------------
B-------------------------------------------------------------
G-------------------------------------------------------------
D-------------------------------------------------------------
A--7-77-7/3-33-3/3-33-3/5-55-5/7-77-7/5-55-5/3-33-3-33-3-33---
E--5 55 5--------1-11-1/3-33-3/5-55-5/3-33-3/1-11-1-11-1-11---

e-----------------------------------------------------------------------
B----------------------------------------------------------------------
G----------------------------------------------------------------------
D----------------------------------------------------------------------
A--7-77-7/3-33-3/3-33-3/5-55-5-------------------------------------
E--5 55 5--------1-11-1/3-33-3------------------------------------

1:48
e-----------------------------------------------------------------------
B----------------------------------------------------------------------
G----------------------------------------------------------------------
D---7777---5555---5555555555--------------------------------------
A---7777---5555---3333333333------------------------------------
E---5555---3333---3333333333-------------------------------------

2:22
e-------------------------------------------------------------------------
B-------------------------------------------------------------------------
G-------------------------------------------------------------------------
D-3-----------------------------------------------------------------------
A-3-------------7-77-7/3-33-3/3-33-3/5-55-5/7-77-7/5-55-5/3-33-3-33-3-33--
E-1-------------5 55 5--------1-11-1/3-33-3/5-55-5/3-33-3/1-11-1-11-1-11--

e----------------------------------------------------------------------
B----------------------------------------------------------------------
G----------------------------------------------------------------------
D----------------------------------------------------------------------
A--7-77-7/3-33-3/3-33-3/5-55-5-----------------------------------------
E--5 55 5----------1-11-1/3-33-3---------------------------------------
            
Submit corrections

comments powered by Disqus
↑ Back to top | Fall Out Boy Tabs for Chicago Is So Two Years Ago. Lyrics for acoustic guitar and electric guitar. 1 Tablatures and chords are parodies/interpretations of the original songs. You may use it for private study, scholarship, research or language learning purposes only