» » »

Champagne For My Real Friends Real Pain For My Sham Friends Tabs (ver.2)

Artists:  A B C D E F G H I J K L M N O P Q R S T U V W X Y Z # 

Champagne For My Real Friends Real Pain For My Sham Friends Tabs (ver.2)

Fall Out Boy
Rating:
0/5 (0 votes)

Tabs too difficult? Try these video lessons and learn fast.
                Fall Out Boy Rocks!
This is one of the best songs on the album "From under the cork tree"
Buy it.


Key:
h= hammer-on
p= Pull off
.= pm
x= mute note
~= hold note
/= slide down

Okey...here we go!

Intro:
e----------7-7---------7-7-----------|x4
b--3-3-5-5-----3-3-5-5-----7h8p7-----|
g------------------------------------|
d------------------------------------|
a------------------------------------|
e------------------------------------|

Verse: (no, I am not crazy)
e----------------------------------------|x5
b----------------------------------------|
g-5-5--55-5-5-5--55-5-4-4-44-4-5-5-55-5--|
d-x-x--xx-x-x-x--xx-x-x-x-xx-x-x-x-xx-x--|
a-0-0--00-0-5-5--55-5-x-x-xx-x-0-0-00-0--|
e---------------------3-3-33-3-----------|

Last verse:
e----------------------------------------|x1
b----------------------------------------|
g-5-5--55-5-5-5--55-5-4-4-4-4-4-4-4-4----|
d-x-x--xx-x-x-x--xx-x-x-x-x-x-x-x-x-x----|
a-0-0--00-0-5-5--55-5-x-x-x-x-x-x-x-x----|
e---------------------3-3-3-3-3-3-3-3----|
Note: you can play the 4's as 4.
                       x      5
                       x      5
                       3      3
They both work

Pre Chorus:
e-------------------------------------------|x3
b-------------------------------------------|
g-------------------------------------------|
d-------------------------------------------|
a-----5h7----5h7----5h7/3~------------------|
e--8-8----8-8---8-8-------------------------|
pm . .    . .   . .

last one:
e------------------------------------------|x1
b------------------------------------------|
g-----------------7~~~---------------------|
d-----------------7~~~---------------------|
a-----5h7----5h7--5~~~---------------------|
e--8-8----8-8------------------------------|
pm . .    . .

chorus: (Strike us like matches...)
Guitar 1
e-------------------------------------|x1
b-------------------------------------|
g-5-5-5-5-5-5-5-5-4-4-4-4-4-4-4-4-----|
d-5-5-5-5-5-5-5-5-4-4-4-4-4-4-4-4-----|
a-3-3-3-3-3-3-3-3-2-2-2-2-2-2-2-2-----|
e-------------------------------------|

(Cause everyone deserves the flames...)
e-------------------------------------|x1
b-------------------------------------|
g-------------------------------------|
d-3-3-3-3-3-3-3-3-3-3-3-3-3-3-3-3-----|
a-3-3-3-3-3-3-3-3-3-3-3-3-3-3-3-3-----|
e-1-1-1-1-1-1-1-1-1-1-1-1-1-1-1-1-----|

(we only do...)
e-------------------------------------|x1
b-------------------------------------|
g-------------------------------------|
d-7-7-7-7-7-7-7-7-5-5-5-5-5-5-5-5-----|
a-7-7-7-7-7-7-7-7-5-5-5-5-5-5-5-5-----|
e-5-5-5-5-5-5-5-5-3-3-3-3-3-3-3-3-----|

(not the fame..)
e-------------------------------------|x1
b-------------------------------------|
g-------------------------------------|
d-3-3-3-3-3-3-3-3-3-3-3-3-3-3-3-3-----|
a-3-3-3-3-3-3-3-3-3-3-3-3-3-3-3-3-----|
e-1-1-1-1-1-1-1-1-1-1-1-1-1-1-1-1-----|

Guitar 2 plays this once in a while
e----8h10p8---------------------------|
b-------------------------------------|
g-------------------------------------|
d-------------------------------------|
a-------------------------------------|
e-------------------------------------|

Other Chorus Part: (At least everyone...)
e-------------------------------------|x1
b-------------------------------------|
g--5-5-5-5-5-5-5-5--------------------|
d--5-5-5-5-5-5-5-5-3-3-3-3-3-3-3-3----|
a--3-3-3-3-3-3-3-3-3-3-3-3-3-3-3-3----|
e------------------1-1-1-1-1-1-1-1----|

(everyone deserves the flames...)
e-------------------------------------|x1
b-------------------------------------|
g--5-5-5-5----------------------------|
d--5-5-5-5-5-5-5-5-3-3-3-3-3-3-3-3----|
a--3-3-3-3-5-5-5-5-3-3-3-3-3-3-3-3----|
e----------3-3-3-3-1-1-1-1-1-1-1-1----|

Intro again

Verse only 3 times

Pre Corus again

Chorus

Then... the bridge

bass
g------------------------------------|x2
d------------------------------------|
a--3333333322222222------------------|
e------------------1111111111111111--|

Part 1:
e-------------------------------------|x1
b--0-1~~----0-1~~----0-1~~------------|
g--0-0~~--0---0~~--0---0~~--5-5-5-5---|
d---------------------------5-5-5-5---|
a---------------------------3-3-3-3---|
e-------------------------------------|
pm                          . . . .

Part 2:
bass
g-------------------------------------|x2
d-------------------------------------|
a-------------------------------------|
e--55555555333333331111111111111111---|

guitar           (play here^)
e-------------------------------------|x1
b-------------------------------------|
g-------------------------------------|
d--3-3-3-3-3-3-3-3--------------------|
a--3-3-3-3-3-3-3-3--------------------|
e--1-1-1-1-1-1-1-1--------------------|
pm . . . . . . .

Last Chorus
e-------------------------------------|x1
b-------------------------------------|
g-5-5-5-5-5-5-5-5-4-4-4-4-4-4-4-4-----|
d-5-5-5-5-5-5-5-5-4-4-4-4-4-4-4-4-----|
a-3-3-3-3-3-3-3-3-2-2-2-2-2-2-2-2-----|
e-------------------------------------|

(Cause everyone deserves the flames...)
e-------------------------------------|x1
b-------------------------------------|
g-------------------------------------|
d-3-3-3-3-3-3-3-3-3-3-3-3-3-3-3-3-----|
a-3-3-3-3-3-3-3-3-3-3-3-3-3-3-3-3-----|
e-1-1-1-1-1-1-1-1-1-1-1-1-1-1-1-1-----|

(we only do...)
e-------------------------------------|x1
b-------------------------------------|
g-------------------------------------|
d-7-7-7-7-7-7-7-7-5-5-5-5-5-5-5-5-----|
a-7-7-7-7-7-7-7-7-5-5-5-5-5-5-5-5-----|
e-5-5-5-5-5-5-5-5-3-3-3-3-3-3-3-3-----|

(not the fame..)
e-------------------------------------|x1
b-------------------------------------|
g-------------------------------------|
d-3-3-3-3-3-3-3-3-3-3-3-3-3-3-3-3-----|
a-3-3-3-3-3-3-3-3-3-3-3-3-3-3-3-3-----|
e-1-1-1-1-1-1-1-1-1-1-1-1-1-1-1-1-----|

(at least everyone...)
e-------------------------------------|x1
b-------------------------------------|
g--5~~~-------------------------------|
d--5~~~----------3-33-3~--3-----------|
a--3~~~----------3-33-3~--3-----------|
e----------------1-11-1~--1-----------|
pm                 ..

(everyone deserves...)
e-------------------------------------|
b-------------------------------------|
g--5~~~-------------------------------|
d--5~~~--5~~~-----3~---3~---3~---3~---|
a--3~~~--5~~~-----3~---3~---3~---3~---|
e--------3~~~-----1~---1~---1~---1~---|

Outro:
e-------------------------------------|
b-------------------------------------|
g-------------------------------------|
d-3~---3~---3~---3--------------------|
a-3~---3~---3~---3--------------------|
e-1~---1~---1~---1--------------------|

Please Rate my tab!

End
            
Tabs too difficult? Try these video lessons and learn fast.


comments powered by Disqus
↑ Back to top | Tablatures and chords are parodies/interpretations of the original songs. You may use it for private study, scholarship, research or language learning purposes only