» » »

Beat It Bass tabs (ver.6)

Artists:  A B C D E F G H I J K L M N O P Q R S T U V W X Y Z # 

Beat It Bass tabs (ver.6)

Fall Out Boy
Rating:
0/5 (0 votes)

Tabs too difficult? Try these video lessons and learn fast.
                -------------------------------------------------------------------------------
			     Beat it Fall Out Boy
-------------------------------------------------------------------------------

Tuning: Drop D

Hey guys, so I was looking up tabs for this and I came across one that was
very good but it had you going all the way up and dow nthe neck of the 
guitar, witch I found kind of annoying and difficult. 
So I tabbed it out like this its much easyer and sounds the same.
Im pretty sure its completey right to.
So feel free to comment and rate, thanks.

First tab btw.


Intro: x6
G|---------|
D|---------|
A|---------|
D|----/12--|



Intro: x4 (comes in shortly after guitar starts)
G|--------------------------|
D|-----------3---2----------|
A|--33-----0---5---5-33-3---| 
D|-----0-3------------------| 
Verses x2 (Listen for timing)
G|-------------------------------------------------------------|
D|-------------------------------------------------------------|
A|--------3-3-3--------3-3-3--1-1-1--3-3-3--5-5-5--3-3-3-------|
D|-0-0-0--------0-0-0------------------------------------------|
Chorus: x3
G|-------------------------------------------|
D|----------3---2--------------3---2---------|
A|--------0---5---5-33-3-----0---5---5-3-33--|
D|----0-3----------------0-3-----------------|

Verses 2 x2 (Listen for timing)
G|-------------------------------------------------------------|
D|-------------------------------------------------------------|
A|--------3-3-3--------3-3-3--1-1-1--3-3-3--5-5-5--3-3-3-------|
D|-0-0-0--------0-0-0------------------------------------------|
Chorus: x3
Bridge X3
G|----------------------|
D|----------------------|
A|----------------------|
D|--000X-000~-000X-000X-|

Bridge Cont.
G|----------------------|
D|----------------------|
A|----------------------|
D|--000X-000~-000X-000~-|

Solo x2 (Listen for timing)
G|-------------------------------------------------------------|
D|-------------------------------------------------------------|
A|--------3-3-3--------3-3-3--1-1-1--3-3-3--5-5-5--3-3-3-------|
D|-0-0-0--------0-0-0------------------------------------------|

Then Chorus x8 till end.
And thats it, pretty simple once you get the rytthen down (:


| /  slide up
| \  slide down
| h  hammer-on
| p  pull-off
| ~  vibrato
| +  harmonic
| x  Mute note
===============================================================================
            
Tabs too difficult? Try these video lessons and learn fast.




comments powered by Disqus
↑ Back to top | Tablatures and chords are parodies/interpretations of the original songs. You may use it for private study, scholarship, research or language learning purposes only