» » »

Fall Out Boy, Beat It Tabs (ver.3)

Artists:  A B C D E F G H I J K L M N O P Q R S T U V W X Y Z # 

Beat It Tabs (ver.3)

Fall Out Boy Tabs
 Rating:
4/5 (4 votes)
Beat It lessons Tabs too difficult? Try these video lessons and learn fast
                e----------------------------------------------------------|
b----------------------------------------------------------|
g--------5-5-5-------5-5-5---3-3-3---5-5-5---7-7-7---5-5-5-|  
d--2-2-2-5-5-5-2-2-2-5-5-5---3-3-3---5-5-5---7-7-7---5-5-5-|  
a--2-2-2-3-3-3-2-2-2-3-3-3---1-1-1---3-3-3---5-5-5---3-3-3-|   
E--0-0-0-------0-0-0---------------------------------------|   


e:-----|-----------------|-----------------|-----------------|-------------||
B:-----|-----------------|-----------------|-----------------|-------------||
G:-----|-----------------|-----------------|-----------------|-------------||
D:-----|-------5-2-----4-|---2-------------|-------5-2-----4-|---2---------||
A:-----|-----2-----------|-----5---5-------|-----2-----------|-----5-------||
E:--0--|---3-------------|---------------0-|---3-------------|-------------||



e:-----------------------------------|-----------------------||
B:-----------------------------------|-----------------------||
G:--x---x-x-12--x-x-12---9-------x-x-|-11---x-x-11---7-------||
D:--x---x-x-12--x-x-12---9-------x-x-|-12---x-x-12---7-------||
A:-----------------------------------|-----------------------||
E:-----------------------------------|-----------------------||
            
Submit corrections

comments powered by Disqus
↑ Back to top | Fall Out Boy Tabs for Beat It. Lyrics for acoustic guitar and electric guitar. Tablatures and chords are parodies/interpretations of the original songs. You may use it for private study, scholarship, research or language learning purposes only