» » »

Fall Out Boy, Beat It Tabs (ver.4)

Artists:  A B C D E F G H I J K L M N O P Q R S T U V W X Y Z # 

Beat It Tabs (ver.4)

Fall Out Boy Tabs
 Rating:
4/5 (4 votes)
Beat It lessons Tabs too difficult? Try these video lessons and learn fast
                First! >strum palm muted D chord in the rythm of xxx x xx x x xxx. uhh i donno how that 
sense but strum it like you were palm muting the first three things below, yeah the zero's

e----------------------------------------------------------|
b----------------------------------------------------------|
g--------5-5-5-------5-5-5---3-3-3---5-5-5---7-7-7---5-5-5-|  (add little
d--0-0-0-5-5-5-0-0-0-5-5-5---3-3-3---5-5-5---7-7-7---5-5-5-|  after each
a--0-0-0-3-3-3-0-0-0-3-3-3---1-1-1---3-3-3---5-5-5---3-3-3-|   group of power
D--0-0-0-------0-0-0---------------------------------------|    chords)

e------------------------------|
b--6-3---3-6-3-----------------|
g------5-----------------------|
d------------------------------|
a------------------------------|
D------------------------------|

making tabs is hard, uhh to make it sound like how fall out boy plays it then go to the 
beat it tab then drop d that and make it a little flatter by playing every note.. im 
sure one thing flatter.
            
Submit corrections

comments powered by Disqus
↑ Back to top | Fall Out Boy Tabs for Beat It. Lyrics for acoustic guitar and electric guitar. Tablatures and chords are parodies/interpretations of the original songs. You may use it for private study, scholarship, research or language learning purposes only