» » »

Falling In Reverse, The Westerner Tabs (ver.2)

Artists:  A B C D E F G H I J K L M N O P Q R S T U V W X Y Z # 

The Westerner Tabs (ver.2)

Falling In Reverse Tabs
 Rating:
3.6/5 (5 votes)
The Westerner lessons Tabs too difficult? Try these video lessons and learn fast
                (Intro)
So I noticed there were no tabs for this great song which i'd say is one of my favorites 
off the album. Well here's the best of what i got out of it so i hope it's to your 
liking. Please rate and enjoy :)

Verse 1:
d|-------------------------------------------------------------------------|
a|-6--6--6--6--6--6--6--6--5--5--5--5--2--2--2--2--6--6--6--6--6--6--6--6--|
f|-7--7--7--7--7--7--7--7--5--5--5--5--2--2--2--2--7--7--7--7--7--7--7--7--|
c|-------------------------------------------------------------------------|
g|--5--5--5--5--5--5--5--5--3--3--3--3--0--0--0--0--5--5--5--5--5--5--5--5-|
C|-------------------------------------------------------------------------|

-----------------------------------------------------------------------------|
-5--5--5--5------------6--6--6--6--6--6--6--6--5--5--5--5--2--2--2--2--6--6--|
-5--5--5--5-------6-6--7--7--7--7--7--7--7--7--5--5--5--5--2--2--2--2--7--7--|
--------------6-6-6-6--7--7--7--7--7--7--7--7--5--5--5--5--2--2--2--2--7--7--|
--3--3--3--3--4-4-4-4--5--5--5--5--5--5--5--5--3--3--3--3--0--0--0--0--5--5--|
-----------------------------------------------------------------------------|
              . .
-----------------------------------------------------------------------------|
-6--6--6--6--6--6--5--5--5--5------------6--6--6--6--6--6--6--6--6--6--6--6--|
-7--7--7--7--7--7--5--5--5--5--6-6-6-6---7--7--7--7--7--7--7--7--7--7--7--7--|
-7--7--7--7--7--7--5--5--5--5--7-7-7-7---------------------------------------|
-5--5--5--5--5--5--3--3--3--3--4-4-4-4----5--5--5--5--5--5--5--5--5--5--5--5-|
-----------------------------------------------------------------------------|

-------------------------------------------------------------------------|
-6--6--6--6--5--5--5--5--2--2--2--2--6--6--6--6--6--6--6--6--5--5--5--5--|
-7--7--7--7--5--5--5--5--2--2--2--2--7--7--7--7--7--7--7--7--5--5--5--5--|
-------------------------------------------------------------------------|
--5--5--5--5--3--3--3--3--0--0--0--0--5--5--5--5--5--5--5--5--3--3--3--3-|
-------------------------------------------------------------------------|

---------------------------------------------------------|
-2-2-2-2---6~-----5~----2~-----6~-----5~----------6~-----|
-2-2-2-2---7~-----5~----2~-----7~-----5~----6~----7~-----|
-0-0-0-0---7~-----5~----2~-----7~-----5~----7~----7~-----|
-----------5~-----3~----0~-----5~-----3~----4~----5~-----|
---------------------------------------------------------|

Chorus:
Guitar 1
d|-------------------------------------------------------------------------|
a|-------------------------------------------------------------------------|
f|-7--777--7--777--7--777--7--777--10--101010--10--101010--10--101010--10--|
c|-7--777--7--777--7--777--7--777--10--101010--10--101010--10--101010--10--|
g|-5--555--5--555--5--555--5--555--8---8-8-8---8---8-8-8---8---8-8-8---8---|
C|-------------------------------------------------------------------------|

-------------------------------------------------------------------------|
-------------------------------------------------------------------------|
-101010------------------------------------------------------------------|
-101010--5--555--5--555--5--555--5--555--7--777--7--777--7--777--7--777--|
-8-8-8---5--555--5--555--5--555--5--555--7--777--7--777--7--777--7--777--|
---------5--555--5--555--5--555--5--555--7--777--7--777--7--777--7--777--|

-------------------------------------------------------------------------|
-------------------------------------------------------------------------|
-------------------------------------------------------------------------|
-7--777--7--777--7--777--7--777--10--101010--10--101010--10--101010--10--|
 7--777--7--777--7--777--7--777--10--101010--10--101010--10--101010--10--|
-5--555--5--555--5--555--5--555--8---8-8-8---8---8-8-8---8---8-8-8---8---|
-------------------------------------------------------------------------|


-------------------------------------------------------------------------|
---------------------------------------------------------------------2~--|
-101010--------------------------------------------------------------2~--|
-101010--5--555--5--555--5--555--5--555--7--777--7--777--7--7--7--7--2~--|
-8-8-8---5--555--5--555--5--555--5--555--7--777--7--777--7--7--7--7--0~--|
---------5--555--5--555--5--555--5--555--7--777--7--777--7--7--7--7------|

Guitar 2:

d|------------------------------------------------------------------|
a|------------------------------------------------------------------|
f|-77777/14141414/151515\12\10--55555/14141414/15-14-12-10-77777/10-|
c|-xxxxx/x-x-x-x-/x-x-x-\x-\x---xxxxx/x-x-x-x-/x--x--x--x--xxxxx/x--|
g|-55555/121212/131313--\10\8---33333/12121212/13-12-10-8--55555/8--|
C|------------------------------------------------------------------|

-------------|
-------------|
-99999/14----|
-xxxxx/x---|
-77777/12--|
-----------|

So that's it for 'now'. Really hope it helps :)
            
Submit corrections

comments powered by Disqus
↑ Back to top | Falling In Reverse Tabs for The Westerner. Lyrics for acoustic guitar and electric guitar. Tablatures and chords are parodies/interpretations of the original songs. You may use it for private study, scholarship, research or language learning purposes only